Song name
# A B C D E F G H I J K L M N O P Q R S T U V W X Y Z

Agent Bulldogg - Inlast tab

Inlast By: Agent bulldogg

Intro/outro:
      E       D       C       G
E|---------------------------------|
B|---------------------------------|
G|---------------------------------|
D|----9-------7-------5------------|
A|----7-------5-------3-------5----|
E|----------------------------3----| (after outro, finish with a E7 powerchord)

Intro/outro lead:
E|----------------------------------------------------------------------|
B|----------------------------------------------------------------------|
G|------------------------------------------5--5--5--7--5--7b8--7b8--5--|
D|-------5--5--5--7--5--7b8--7b8--5----5h7------------------------------|
A|--5h7-----------------------------------------------------------------|
E|----------------------------------------------------------------------|

E|------------------------------------------------------------|
B|------------------------------------------------------------|
G|------------------------------------------5--5--5--7--5-----|
D|-------5--5--5--7--5--7b8--7b8--5----5h7-----------------5--|
A|--5h7-------------------------------------------------------|
E|------------------------------------------------------------|

Verse:
   E            D            C            G
E|----------------------------------------------------|
B|----------------------------------------------------|
G|----------------------------------------------------|
D|-9-9-9-9-9-9--7-7-7-7-7-7--5-5-5-5-5-5--------------|
A|-7-7-7-7-7-7--5-5-5-5-5-5--3-3-3-3-3-3--5-5-5-5-5-5-|
E|----------------------------------------3-3-3-3-3-3-|

Chorus:
   F                       A
E|-------------------------------------------------|
B|-------------------------------------------------|
G|-------------------------------------------------|
D|-------------------------2-2-2-2-2-2-2-2-2-2-2-2-|
A|-3-3-3-3-3-3-3-3-3-3-3-3-0-0-0-0-0-0-0-0-0-0-0-0-|
E|-1-1-1-1-1-1-1-1-1-1-1-1-------------------------|X3

   F                        A    F    F
E|---------------------------------------------------|
B|---------------------------------------------------|
G|---------------------------------------------------|
D|--------------------------2------------------------|
A|-3-3-3-3-3-3-3-3-3-3-3-3--0----5----3----3-3-3-3-3-|
E|-1-1-1-1-1-1-1-1-1-1-1-1-------3----1----1-1-1-1-1-|

Solo:

E|--0--0--0--2--2--2--3--3--5--5--5--5--|
B|--------------------------------------|
G|--------------------------------------|
D|--------------------------------------|
A|--------------------------------------|
E|--------------------------------------| x3

E|--3--0--3--0--3--0--3--0--3--0--3--0--|
B|--------------------------------------|
G|--------------------------------------|
D|--------------------------------------|
A|--------------------------------------|
E|--------------------------------------| play the solo two times.

Rhythm under solo:

   E                       D
E|--------------------------------------------------|
B|--------------------------------------------------|
G|-------------------------2-2-2-2-2-2-2-2-2-2-2-2--|
D|-------------------------0-0-0-0-0-0-0-0-0-0-0-0--|
A|-2-2-2-2-2-2-2-2-2-2-2-2--------------------------|
E|-0-0-0-0-0-0-0-0-0-0-0-0--------------------------|

  A                        E
E|--------------------------------------------------|
B|--------------------------------------------------|
G|--------------------------------------------------|
D|-2-2-2-2-2-2-2-2-2-2-2-2--------------------------|
A|-0-0-0-0-0-0-0-0-0-0-0-0-2-2-2-2-2-2-2-2-2-2-2-2--|
E|-------------------------0-0-0-0-0-0-0-0-0-0-0-0--|


By: themechanix100
Tap to rate this tab
# A B C D E F G H I J K L M N O P Q R S T U V W X Y Z