Guitaretab - guitar tabs
Song name
# A B C D E F G H I J K L M N O P Q R S T U V W X Y Z

Agent Orange - Bloodstains tab

Bloodstains
Agent Orange
Tabbed by RizzoWashburn
Standard Tuning (EADGBe)

Intro:
e|--------------| 
B|--------------| 
G|--------------| 
D|-4-44444---5--| X4
A|-4-44444---5--| 
E|-2-22222-0-3--| 
     .....   
[ Tab from: http://www.guitaretab.com/a/agent-orange/120974.html ]
Verse:
e|--------------| 
B|--------------| 
G|--------------| 
D|-4-44444---5--| X4
A|-4-44444---5--| 
E|-2-22222-0-3--| 
     .....   
e|--------------------------| 
B|--------------------------| 
G|--------------------------| 
D|-2-22222---3--2-22222---5-|
A|-2-22222---3--2-22222---5-| 
E|-0-00000-0-1--0-00000-0-3-| 
     .....        .....
e|--------------| 
B|--------------| 
G|--------------| 
D|-4-44444---5--| X2
A|-4-44444---5--| 
E|-2-22222-0-3--| 
     .....   
e|--------------| 
B|--------------| 
G|--------------| 
D|-4-44444---5--| X4
A|-4-44444---5--| 
E|-2-22222-0-3--| 
     .....   
e|--------------------------| 
B|--------------------------| 
G|--------------------------| 
D|-2-22222---3--2-22222---5-|
A|-2-22222---3--2-22222---5-| 
E|-0-00000-0-1--0-00000-0-3-| 
     .....        .....
e|--------------| 
B|--------------| 
G|--------------| 
D|-4-44444---5--| X2
A|-4-44444---5--| 
E|-2-22222-0-3--| 
     .....   


Chorus: this part had been tabbed all wrong before
e|------| 
B|------| 
G|------| 
D|-2-2--| 
A|-2-2--|
E|-0-0--| 

e|--------------| 
B|--------------| 
G|--------------| 
D|-4-44444---5--| X2
A|-4-44444---5--| 
E|-2-22222-0-3--| 
     .....   
e|------| 
B|------| 
G|------| 
D|-2-2--| 
A|-2-2--|
E|-0-0--|

e|-----------| 
B|-----------| 
G|-----------| 
D|-44444444--| 
A|-44444444--|
E|-22222222--|

Solo:
e|-----------------------------------------------------| 
B|-----------------------------------------------------|
G|-----------------------------------------------------|
D|-----------------------------------------------------|
A|---12424212124444211112445-303h46p43p03p0------------|
E|-22223------------------------------------554554-----|

e|-----------------------------------------------------|
B|-----------------------------------------------------| 
G|-----3434/66434/6434/6434/64343h4p3-343--------------|
D|403034------------------------------4----------30343-|
A|----------------------------------------555545-------| 
E|-----------------------------------------------------|

ORDER:
Intro
Verse
Chorus
Verse
Chorus
Solo
Chorus
Related for Bloodstains tab
Bloodstains chords by Agent Orange