Song name
# A B C D E F G H I J K L M N O P Q R S T U V W X Y Z

Agent Orange - Miserlou tab

Band: Agent Orange
Song: Miserlou
e-mail: iamtheowl133@aol.com

e|--------------------------------|
B|--------------------------------|
G|--------------------------------|
D|------------0-------------------|
A|------0-2-----3-2h3p2h3p2h3p2h3-|
E|-0--4---------------------------|

e|--------------------------------|
B|--------------------------------|
G|--------------------------------|
D|------------1-------------------|
A|------0-2-----3-2h3p2h3p2h3p2h3-|
E|-0--4---------------------------|

e|------------------------------|
B|------------------------------|
G|------------------------------|
D|------------------------------|
A|-3--2-3-2--0--2--0-2-0--------|
E|-------------------------1--4-|

e|--------------------------|
B|--------------------------|
G|--------------------------|
D|--------------------------|
A|--------------------------|
E|-5--4-5-4---4--1-4-1--0-1-|

e|--------------------------------|
B|--------0---3-1-0h1p0h1p0h1p0h1-|
G|----1-2-------------------------|
D|-2------------------------------|
A|--------------------------------|
E|--------------------------------|

e|--------------------------------|
B|--------0---3-1-0h1p0h1p0h1p0h1-|
G|----1-2-------------------------|
D|-2------------------------------|
A|--------------------------------|
E|--------------------------------|

e|------------------------------|
B|------------------------------|
G|-5--4-5-4--1---4--2-4-2---1---|
D|------------------------3-----|
A|------------------------------|
E|------------------------------|

e|-------------------------------|
B|-------------------------------|
G|-1-----1-----------------------|
D|-----3---3---2-----------------|
A|-------------------------------|
E|-------------------------------|

e|-------------------------------|
B|-------------------------------|
G|-------------------------------|
D|----------------------1----1-2-|
A|-0---0-2--0-2-3--2-3-----3-----|
E|---3---------------------------|

e|--------------------------------|
B|--------0---3-1-0h1p0h1p0h1p0h1-|
G|----1-2-------------------------|
D|-2------------------------------|
A|--------------------------------|
E|--------------------------------|

e|--------------------------------|
B|--------0---3-1-0h1p0h1p0h1p0h1-|
G|----1-2-------------------------|
D|-2------------------------------|
A|--------------------------------|
E|--------------------------------|

e|------------------------------|
B|------------------------------|
G|-5--4-5-4--1---4--2-4-2---1---|
D|------------------------3-----|
A|------------------------------|
E|------------------------------|

e|-------------------------------|
B|-------------------------------|
G|-1-----1-----------------------|
D|-----3---3---2-----------------|
A|-------------------------------|
E|-------------------------------|

e|--------------------------------|
B|--------------------------------|
G|--------------------------------|
D|------------0-------------------|
A|------0-2-----3-2h3p2h3p2h3p2h3-|
E|-0--4---------------------------|

e|--------------------------------|
B|--------------------------------|
G|--------------------------------|
D|------------1-------------------|
A|------0-2-----3-2h3p2h3p2h3p2h3-|
E|-0--4---------------------------|

e|------------------------------|
B|------------------------------|
G|------------------------------|
D|------------------------------|
A|-3--2-3-2--0--2--0-2-0--------|
E|-------------------------1--4-|

e|--------------------------|
B|--------------------------|
G|--------------------------|
D|--------------------------|
A|--------------------------|
E|-5--4-5-4---4--1-4-1--0-1-|

e|--------------------------------|
B|--------------------------------|
G|--------------------------------|
D|------------0-------------------|
A|------0-2-----3-2h3p2h3p2h3p2h3-|
E|-0--4---------------------------|

e|--------------------------------|
B|--------------------------------|
G|--------------------------------|
D|------------0-------------------|
A|------0-2-----3-2h3p2h3p2h3p2h3-|
E|-0--4---------------------------|

e|--------------------------------|
B|--------------------------------|
G|--------------------------------|
D|------------0-------------------|
A|------0-2-----3-2h3p2h3p2h3p2h3-|
E|-0--4---------------------------|
Tap to rate this tab
 
# A B C D E F G H I J K L M N O P Q R S T U V W X Y Z