Song name
# A B C D E F G H I J K L M N O P Q R S T U V W X Y Z

Agent Orange - Breakdown tab

Intro/Main Riff
E-------------|-------------------------|
B-------------|-------------------------|
G-12----12----|-------------------------|
D-12-12-12-12-|-------------------------|
A-10-12-10-12-|-10-10-10-10-12-12-12-12-|
E----10----10-|-8--8--8--8--10-10-10-10-|

Verse/Main Riff                          x4
E-------------|-------------------------|
B-------------|-------------------------|
G-12----12----|-------------------------|
D-12-12-12-12-|-------------------------|
A-10-12-10-12-|-10-10-10-10-12-12-12-12-|
E----10----10-|-8--8--8--8--10-10-10-10-|

Chorus                                                               x2
E---------------------------------|---------------------------------|
B---------------------------------|---------------------------------|
G---------3-3-3-3-5-5-5-5-5-5-5-5-|---------3-3-3-3-5-5-5-5-5-5-5-5-|
D-5-5-5-5-3-3-3-3-5-5-5-5-5-5-5-5-|-5-5-5-5-3-3-3-3-5-5-5-5-5-5-5-5-|
A-5-5-5-5-1-1-1-1-3-3-3-3-3-3-3-3-|-5-5-5-5-1-1-1-1-3-3-3-3-3-3-3-3-|
E-3-3-3-3-------------------------|-3-3-3-3-------------------------|

Main Riff                                x2
E-------------|-------------------------|
B-------------|-------------------------|
G-12----12----|-------------------------|
D-12-12-12-12-|-------------------------|
A-10-12-10-12-|-10-10-10-10-12-12-12-12-|
E----10----10-|-8--8--8--8--10-10-10-10-|

Verse 2/Main Riff                        x4
E-------------|-------------------------|
B-------------|-------------------------|
G-12----12----|-------------------------|
D-12-12-12-12-|-------------------------|
A-10-12-10-12-|-10-10-10-10-12-12-12-12-|
E----10----10-|-8--8--8--8--10-10-10-10-|

Chorus                                                               x2
E---------------------------------|---------------------------------|
B---------------------------------|---------------------------------|
G---------3-3-3-3-5-5-5-5-5-5-5-5-|---------3-3-3-3-5-5-5-5-5-5-5-5-|
D-5-5-5-5-3-3-3-3-5-5-5-5-5-5-5-5-|-5-5-5-5-3-3-3-3-5-5-5-5-5-5-5-5-|
A-5-5-5-5-1-1-1-1-3-3-3-3-3-3-3-3-|-5-5-5-5-1-1-1-1-3-3-3-3-3-3-3-3-|
E-3-3-3-3-------------------------|-3-3-3-3-------------------------|

Main Riff                                x4
E-------------|-------------------------|
B-------------|-------------------------|
G-12----12----|-------------------------|
D-12-12-12-12-|-------------------------|
A-10-12-10-12-|-10-10-10-10-12-12-12-12-|
E----10----10-|-8--8--8--8--10-10-10-10-|

Bridge
E---------------------------------|---------------------------------|
B---------------------------------|---------------------------------|
G-4-4-4-4-4-4-4-4-5-5-5-5-5-5-5-5-|-4-4-4-4-4-4-4-4-5-5-5-5-5-5-5-5-|
D-4-4-4-4-4-4-4-4-5-5-5-5-5-5-5-5-|-4-4-4-4-4-4-4-4-5-5-5-5-5-5-5-5-|
A-2-2-2-2-2-2-2-2-3-3-3-3-3-3-3-3-|-2-2-2-2-2-2-2-2-3-3-3-3-3-3-3-3-|
E---------------------------------|---------------------------------|

E---------------------------------|---------------------------------|
B---------------------------------|---------------------------------|
G-4-4-4-4-4-4-4-4-5-5-5-5-5-5-5-5-|-4/5/4/5/4/5/4/5/4/5/4/5/4/5/4/5-|
D-4-4-4-4-4-4-4-4-5-5-5-5-5-5-5-5-|-4/5/4/5/4/5/4/5/4/5/4/5/4/5/4/5-|
A-2-2-2-2-2-2-2-2-3-3-3-3-3-3-3-3-|-2/3/2/3/2/3/2/3/2/3/2/3/2/3/2/3-|
E---------------------------------|---------------------------------|

Main Riff                                x4
E-------------|-------------------------|
B-------------|-------------------------|
G-12----12----|-------------------------|
D-12-12-12-12-|-------------------------|
A-10-12-10-12-|-10-10-10-10-12-12-12-12-|
E----10----10-|-8--8--8--8--10-10-10-10-|

Verse 3/Main                             x4
E-------------|-------------------------|
B-------------|-------------------------|
G-12----12----|-------------------------|
D-12-12-12-12-|-------------------------|
A-10-12-10-12-|-10-10-10-10-12-12-12-12-|
E----10----10-|-8--8--8--8--10-10-10-10-|

Chorus                                                               x2
E---------------------------------|---------------------------------|
B---------------------------------|---------------------------------|
G---------3-3-3-3-5-5-5-5-5-5-5-5-|---------3-3-3-3-5-5-5-5-5-5-5-5-|
D-5-5-5-5-3-3-3-3-5-5-5-5-5-5-5-5-|-5-5-5-5-3-3-3-3-5-5-5-5-5-5-5-5-|
A-5-5-5-5-1-1-1-1-3-3-3-3-3-3-3-3-|-5-5-5-5-1-1-1-1-3-3-3-3-3-3-3-3-|
E-3-3-3-3-------------------------|-3-3-3-3-------------------------|

Main Riff Variant                        x4
E-------------|-------------------------|
B-------------|-------------------------|
G-12----12----|-------------------------|
D-12-12-12-12-|-------------------------|
A-10-12-10-12-|-10-10-10-10-12----------|
E----10----10-|-8--8--8--8--10----------|


Main riff                                x1
E-------------|-------------------------|
B-------------|-------------------------|
G-12----12----|-------------------------|
D-12-12-12-12-|-------------------------|
A-10-12-10-12-|-10-10-10-10-12-12-12-12-|
E----10----10-|-8--8--8--8--10-10-10-10-|

"Whats come over me, I'm getting dizzy...."
E---------------------------------|
B---------------------------------|
G-4/5/4/5/4/5/4/5/4/5/4/5/4/5/4/5-|
D-4/5/4/5/4/5/4/5/4/5/4/5/4/5/4/5-|
A-2/3/2/3/2/3/2/3/2/3/2/3/2/3/2/3-|
E---------------------------------|

Main riff                                x8
E-------------|-------------------------|
B-------------|-------------------------|
G-12----12----|-------------------------|
D-12-12-12-12-|-------------------------|
A-10-12-10-12-|-10-10-10-10-12-12-12-12-|
E----10----10-|-8--8--8--8--10-10-10-10-|

"Stop"

***************************************************************
This is the Posh Boy Version 
(on the original EP and on the CD "Living In Darkness")







Tap to rate this tab
# A B C D E F G H I J K L M N O P Q R S T U V W X Y Z