Song name
# A B C D E F G H I J K L M N O P Q R S T U V W X Y Z

Agent Orange - I Kill Spies tab

song: I Kill Spies
band: Agent Orange
Album: Bloodstained hitz

Tuning: half step down

eb|--0----------------------|
Bb|--0----------------------|
Gb|--0----------------------| 
Db|--2-2-21-1-0-0-1-1------| 
Ab|--2--2-2-2-2-2-2-2-2-----|
Eb|--0----------------------|


eb|--0----------------------|
Bb|--0----------------------| 
Gb|--2-2-21-1-0-0-1-1------| 
Db|--2--2-2-2-2-2-2-2-2-----|
Ab|--0----------------------|
Eb|-------------------------|

eb|-----------------------------------------|
Bb|-----------------------------------------|
Gb|-----------------------------------------| 
Db|-9999-4444-7777-44449999-4444-7---------| 
Ab|-9999-4444-7777-4444-9999-4444-7---------|
Eb|-7777-6666-5555-6666-7777-6666-5---------|


-Ending riff-
eb|-----------------------0---|
Bb|-----------------------0---|
Gb|-----------------------0---| 
Db|---2-21-1-0-0-1-1--/5-2---| 
Ab|----2-2-2-2-2-2-2------2---|
Eb|-----------------------0---|


These are all the different parts of the song.
Tap to rate this tab
# A B C D E F G H I J K L M N O P Q R S T U V W X Y Z