Song name
# A B C D E F G H I J K L M N O P Q R S T U V W X Y Z

Agent Orange - The Last Goodbye tab

Help us improve GuitareTab! Take a short survey!
Intro
E------------|
B------------|
G-4----5-----|
D-4----7-7-5-|
A-2----5-7-5-|
E--------5-3-|

Main Riff
E---------------------------------|---------------------------------|
B---------------------------------|---------------------------------|
G-4-------7-----------------------|-4-------7-----------------------|
D-4-------7---7---5-------4---7---|-4-------7---7---5-------4---7---|
A-2-------5---7---5-------4---7---|-2-------5---7---5-------4---7---|
E-------------5---3-------2---5---|-------------5---3-------2---5---|

Verse (Palmute)
E---------------------------------|---------------------------------|
B---------------------------------|---------------------------------|
G-4-4-4-4-7-7-7-7-----------------|-4-4-4-4-7-7-7-7-----------------|
D-4-4-4-4-7-7-7-7-5-5-5-5-4-4-7-7-|-4-4-4-4-7-7-7-7-5-5-5-5-4-4-7-7-|
A-2-2-2-2-5-5-5-5-5-5-5-5-4-4-7-7-|-2-2-2-2-5-5-5-5-5-5-5-5-4-4-7-7-|
E-----------------3-3-3-3-2-2-5-5-|-----------------3-3-3-3-2-2-5-5-|

E---------------------------------|---------------------------------|
B---------------------------------|---------------------------------|
G-4-4-4-4-7-7-7-7-----------------|-4-4-4-4-7-7-7-7-----------------|
D-4-4-4-4-7-7-7-7-5-5-5-5-4-4-7-7-|-4-4-4-4-7-7-7-7-5-5-5-5-4-4-7-7-|
A-2-2-2-2-5-5-5-5-5-5-5-5-4-4-7-7-|-2-2-2-2-5-5-5-5-5-5-5-5-4-4-7-7-|
E-----------------3-3-3-3-2-2-5-5-|-----------------3-3-3-3-2-2-5-5-|

Pre-Chorus
E-------------------------|-------------------------|
B-------------------------|-------------------------|
G-----9---7---------------|-----7-------9-----------|
D-9---9---7---7---9-------|-9---7---7---9---9-------|
A-9---7---5---7---9-------|-9---5---7---7---9-------|
E-7-----------5---7-(hold)|-7-------5-------7-(hold)|

E-------------------------|-------------------------|
B-------------------------|-------------------------|
G-----9---7---------------|-----7-------9-----------|
D-9---9---7---7---9-------|-9---7---7---9---9-------|
A-9---7---5---7---9-------|-9---5---7---7---9-------|
E-7-----------5---7-(hold)|-7-------5-------7-(hold)|

Chorus (...I see my opportunity to shout...)
E----------------------------------|
B----------------------------------|
G-11111111111111111111111111111111-|
D-11111111111111111111111111111111-|
A-9-9-9-9-9-9-9-9-9-9-9-9-9-9-9-9--|
E----------------------------------|

Main Riff
E---------------------------------|---------------------------------|
B---------------------------------|---------------------------------|
G-4-------7-----------------------|-4-------7-----------------------|
D-4-------7---7---5-------4---7---|-4-------7---7---5-------4---7---|
A-2-------5---7---5-------4---7---|-2-------5---7---5-------4---7---|
E-------------5---3-------2---5---|-------------5---3-------2---5---|

Verse (Palmute)
E---------------------------------|---------------------------------|
B---------------------------------|---------------------------------|
G-4-4-4-4-7-7-7-7-----------------|-4-4-4-4-7-7-7-7-----------------|
D-4-4-4-4-7-7-7-7-5-5-5-5-4-4-7-7-|-4-4-4-4-7-7-7-7-5-5-5-5-4-4-7-7-|
A-2-2-2-2-5-5-5-5-5-5-5-5-4-4-7-7-|-2-2-2-2-5-5-5-5-5-5-5-5-4-4-7-7-|
E-----------------3-3-3-3-2-2-5-5-|-----------------3-3-3-3-2-2-5-5-|

E---------------------------------|---------------------------------|
B---------------------------------|---------------------------------|
G-4-4-4-4-7-7-7-7-----------------|-4-4-4-4-7-7-7-7-----------------|
D-4-4-4-4-7-7-7-7-5-5-5-5-4-4-7-7-|-4-4-4-4-7-7-7-7-5-5-5-5-4-4-7-7-|
A-2-2-2-2-5-5-5-5-5-5-5-5-4-4-7-7-|-2-2-2-2-5-5-5-5-5-5-5-5-4-4-7-7-|
E-----------------3-3-3-3-2-2-5-5-|-----------------3-3-3-3-2-2-5-5-|

Pre-Chorus
E-------------------------|-------------------------|
B-------------------------|-------------------------|
G-----9---7---------------|-----7-------9-----------|
D-9---9---7---7---9-------|-9---7---7---9---9-------|
A-9---7---5---7---9-------|-9---5---7---7---9-------|
E-7-----------5---7-(hold)|-7-------5-------7-(hold)|

E-------------------------|-------------------------|
B-------------------------|-------------------------|
G-----9---7---------------|-----7-------9-----------|
D-9---9---7---7---9-------|-9---7---7---9---9-------|
A-9---7---5---7---9-------|-9---5---7---7---9-------|
E-7-----------5---7-(hold)|-7-------5-------7-(hold)|

Chorus (...I see my opportunity to shout...)
E----------------------------------|
B----------------------------------|
G-11111111111111111111111111111111-|
D-11111111111111111111111111111111-|
A-9-9-9-9-9-9-9-9-9-9-9-9-9-9-9-9--|
E----------------------------------|

Main Riff
E---------------------------------|---------------------------------|
B---------------------------------|---------------------------------|
G-4-------7-----------------------|-4-------7-----------------------|
D-4-------7---7---5-------4---7---|-4-------7---7---5-------4---7---|
A-2-------5---7---5-------4---7---|-2-------5---7---5-------4---7---|
E-------------5---3-------2---5---|-------------5---3-------2---5---|

Bridge
E---------------------------------------------------------|
B---------------------------------------------------------|
G---------------------------------------------------------|
D-5-5-xx-5-5-xx-5-5-xx-5-5-xx-7-7-xx-7-7-xx-7-7-xx-7-7-xx-|
A-5-5-xx-5-5-xx-5-5-xx-5-5-xx-7-7-xx-7-7-xx-7-7-xx-7-7-xx-|
E-3-3-xx-3-3-xx-3-3-xx-3-3-xx-5-5-xx-5-5-xx-5-5-xx-5-5-xx-|

E--------------------------------------|
B--------------------------------------|
G--------------------------------------|
D-5-5-xx-5-5-xx-5-5-xx-5-5-xx-4--------|
A-5-5-xx-5-5-xx-5-5-xx-5-5-xx-4--------|
E-3-3-xx-3-3-xx-3-3-xx-3-3-xx-2--------|

Main Riff
E---------------------------------|---------------------------------|
B---------------------------------|---------------------------------|
G-4-------7-----------------------|-4-------7-----------------------|
D-4-------7---7---5-------4---7---|-4-------7---7---5-------4---7---|
A-2-------5---7---5-------4---7---|-2-------5---7---5-------4---7---|
E-------------5---3-------2---5---|-------------5---3-------2---5---|

Bridge
E---------------------------------------------------------|
B---------------------------------------------------------|
G---------------------------------------------------------|
D-5-5-xx-5-5-xx-5-5-xx-5-5-xx-7-7-xx-7-7-xx-7-7-xx-7-7-xx-|
A-5-5-xx-5-5-xx-5-5-xx-5-5-xx-7-7-xx-7-7-xx-7-7-xx-7-7-xx-|
E-3-3-xx-3-3-xx-3-3-xx-3-3-xx-5-5-xx-5-5-xx-5-5-xx-5-5-xx-|

E--------------------------------------|
B--------------------------------------|
G--------------------------------------|
D-5-5-xx-5-5-xx-5-5-xx-5-5-xx-4--------|
A-5-5-xx-5-5-xx-5-5-xx-5-5-xx-4--------|
E-3-3-xx-3-3-xx-3-3-xx-3-3-xx-2--------|

Outro
E---------------------------|
B---------------------------|
G-4-4-4-4-7-7-------------4-|
D-4-4-4-4-7-7-7-7-5-------4-|
A-2-2-2-2-5-5-7-7-5-------2-|
E-------------5-5-3---------|


****************************************************************************
This is what the Main Riff really looks like The Brackets meaning hold the note for that 
of time
E---------------------------------|---------------------------------|
B---------------------------------|---------------------------------|
G-4(4-4-4)7(7)--------------------|-4-------7-----------------------|
D-4(4-4-4)7(7)7(7)5(5-5-5)4(4)7(7)|-4-------7---7---5-------4---7---|
A-2(2-2-2)5(5)7(7)5(5-5-5)4(4)7(7)|-2-------5---7---5-------4---7---|
E-------------5(5)3(3-3-3)2(2)5(5)|-------------5---3-------2---5---|
Related for The Last Goodbye tab