Song name
# A B C D E F G H I J K L M N O P Q R S T U V W X Y Z

Agent Orange - A Cry For Help In A World Gone Mad tab

Help us improve GuitareTab! Take a short survey!
                        A CRY FOR HELP IN A WORLD GONE MAD
                           As recorded by Agent Orange


 Intro
  E5           D5              A5         B5  C5          B5 
|-------------|-------------|---------------|------------|------------|
|-------------|-------------|---------------|------------|------------|
|--9----------|-7-----------|-2--------2-/4-|-/5---------|-4----------|
|--9----------|-7-----------|-2--------2-/4-|-/5---------|-4----------|
|--7----------|-5-----------|-0--------0-/2-|-/3---------|-2----------|
|-------------|-------------|---------------|------------|------------|

Pre-Verse
 (Em)
|------------|------------|------------|------------|
|-----8------|---8--7-----|-----8------|---8--7-----|
|-----9------|---------9--|-----9------|---------9--|
|-/9---------|------------|-/9---------|------------|
|------------|------------|------------|------------|
|------------|------------|------------|------------|

Verse
  E5           D5              A5         B5   C5          B5 
||-------------|-------------|---------------|------------|------------||
||o------------|-------------|---------------|------------|-----------o||
||--9----------|-7-----------|-2--------2-/4-|-/5---------|-4----------||
||--9----------|-7-----------|-2--------2-/4-|-/5---------|-4----------||
||o-7----------|-5-----------|-0--------0-/2-|-/3---------|-2---------o||
||-------------|-------------|---------------|------------|------------||


|------------|------------|------------|------------|
|-----8------|---8--7-----|-----8------|---8--7-----|
|-----9------|---------9--|-----9------|---------9--|
|-/9---------|------------|-/9---------|------------|
|------------|------------|------------|------------|
|------------|------------|------------|------------|

Pre-Chorus
||------------------|------------------||
||o-----------------|-----------------o||
||--5-5-5-5-5-5-7-7-|-4-4-4-4-4-4-4-4--||
||--5-5-5-5-5-5-7-7-|-4-4-4-4-4-4-4-4--||
||o-3-3-3-3-3-3-5-5-|-2-2-2-2-2-2-2-2-o||
||------------------|------------------||

|------------------|-------------------|
|------------------|-------------------|
|--5-5-5-5-5-5-7-7-|-4-4-4-4-----------|
|--5-5-5-5-5-5-7-7-|-4-4-4-4-----------|
|--3-3-3-3-3-3-5-5-|-2-2-2-2-3-2-0-----|
|------------------|---------------3-0-|

Chorus
 (Em)
|------------|------------|------------|------------|
|-----8------|---8--7-----|-----8------|---8--7-----|
|-----9------|---------9--|-----9------|---------9--|
|-/9---------|------------|-/9---------|------------|
|------------|------------|------------|------------|
|------------|------------|------------|------------|

||-----------------||
||o---------------o||
||--/9-9-9-/9-9-9--||
||--/9-9-9-/9-9-9--||
||o---------------o||
||-----------------|| Play the intro chords in the background

Repeat the verse and chorus and make a nice end!

Misc Legend
-----------
 |  - bar
||  - double bar
||o - repeat start
o|| - repeat end
*|  - double bar (ending)

Have fun,
Ibanez87.
Related for A Cry For Help In A World Gone Mad tab