Song name
# A B C D E F G H I J K L M N O P Q R S T U V W X Y Z

Agent Orange - Surf Beat tab

-------------------------------------------------------------------------------
			     SONG NAME - agent orange
-------------------------------------------------------------------------------
Tabbed by: max is cooler than you
Email:no thanks

Tuning:standerd
     intro
e|------------------------------------------------------------------------|
B|------------------------------------------------------------------------|
G|------------------------------------3--3----3---------------------------|
D|-3--3----3------3--3----3-----------3--3----3---2x------3--3----3-------|
A|-3--3----3------3--3----3---2x------1--1----1-----------3--3----3---2x--|
E|-1--1----1------1--1----1-------------------------------1--1----1-------|

e|-----------------------------------------------------------------------------------|
B|-----------------------------------------------------------------------------------|
G|---5--5----5-----3--3----3---------------------------------------------------------|
D|---5--5----5-----3--3----3----3--3----3--------------------------------------------|
A|---3--3----3-----1--1----1----3--3----3--------------------------------------------|
E|------------------------------1--1----1-------------------\14----------------------|
         verse
e|---------------------------------------------------------------------------|
B|---------------------------------------------------------------------------|
G|---------------------------------------------------------------------------|
D|---------------------------------------------------------------------------|
A|------------------------------------------1---1-1--4--1--4--6--4--6-6--4\--|
E|---1---1-1--4--1--4--6--4--6-6--4\1--2x------------------------------------|

e|-----------------------------------------------------------------------------|
B|-----------------------------------------------------------------------------|
G|-----------------------------------------------------------------------------|
D|-----------------------------------------------------------------------------|
A|-----------------------------------------------------------------------------|
E|---1---1-1--4--1--4--6--4--6-6--4\1------------------------------------------|

e|----------------------------------------------------------------------------|
B|-----------------9-9/11-11-11\9---------------------------------------------|
G|---------------------------------8-8-8/10-10-10-8 8/10-10-8-5---------------|
D|----------------------------------------------------------------------------|
A|---3---6--8-----------------------------------------------------------------|
E|----------------------------------------------------------------------------|
        whole thing twice with the intro cords in the background. this is my first tab 
its the only one for this song. i think its pretty muck all right and the stuff thats a 
off will be easy to figure out.
Tap to rate this tab
 
# A B C D E F G H I J K L M N O P Q R S T U V W X Y Z