Song name
# A B C D E F G H I J K L M N O P Q R S T U V W X Y Z

Agents Of Oblivion - The Hangmans Daughter tab

Agents of Oblivion - The Hangman's Daughter

Agents of Oblivion was formed after Acid Bath fell apart and they are really good.

D|--------------|
A|--------------|
F|--6--------6--|
C|--6--7--2--6--|
G|--4--7--2--4--|
D|-----5--0-----|

or

D|--4--0--0--4--|
A|--5--0--0--5--|
F|--6--2--1--6--|
C|--6--2--2--6--|
G|--4--0--2--4--|
D|--------0-----|

or

D|--------------|
A|--------------|
F|--6-----9--6--|
C|--6--7--9--6--|
G|--4--7--7--4--|
D|-----5--------|

thats it, for the whole song
Tap to rate this tab
# A B C D E F G H I J K L M N O P Q R S T U V W X Y Z