Song name
# A B C D E F G H I J K L M N O P Q R S T U V W X Y Z

Agents Of The Sun - Portrait Of A Serial Killer tab

-------------------------------------------------------------------------------
	Portrait of a Serial Killer - Agents of the Sun
-------------------------------------------------------------------------------
Tabbed by: Nick
Email: charismatic_enigma_sacrifice@yahoo.com
www.agentsofthesun.com
UPDATED:
9-15-07
UPDATED AGAIN:
12-26-07

Tuning:Drop D

INTRO
e|-------------------------------------------------------------------------|
B|-------------------------------------------------------------------------|
G|------------------2--(2)/7--101010101010-8-8-8-8-8-8-7-7-7-7-7-7---------|
D|-4440--4b-0-4----------------x-x-x-x-x-x-x-x-x-x-x-x-x-x-x-x-x-x---------|
A|-4440------------------------8-8-8-8-8-8-6-6-6-6-6-6-5-5-5-5-5-5---------|
D|-4440-0------------------------------------------------------------------|
        .


e|-------------------------------------------------------------------------|
B|-------------------------------------------------------------------------|
G|--5-5-5-5-5-5------------------------------------------------------------|
D|--x-x-x-x-x-x------------------------------------------------------------|
A|--3-3-3-3-3-3------------------------------------------------------------|
D|-------------------------------------------------------------------------|
(continued from above)


Play the intro twice but on the second time after the slide you play this instead

e|-------------------------------------------------------------------------|
B|-------------------------------------------------------------------------|
G|-12-11------------12-11----------12-11---------12-11---------------------|
D|-------12---11-12------12--11-12------12--11-12-----12-------------------|
A|---------14--------------14-------------14------------14-----------------|
D|-------------------------------------------------------------------------|
PALM MUTE ALL OF THIS


Chorus is the same as the intro
Each verse is different but I will work on getting it up sometime soon.


| .  Palm Mute
| /  slide up
| \  slide down
| h  hammer-on
| p  pull-off
| ~  vibrato
| +  harmonic
| x  Mute note
===============================================================================
Tap to rate this tab
# A B C D E F G H I J K L M N O P Q R S T U V W X Y Z