Song name
# A B C D E F G H I J K L M N O P Q R S T U V W X Y Z

Agents - Poseretnies tab

ok this is my first tab from my band...hope you enjoy

intro
 E--7-7----------5-|
 A------7-7--5-4---|
 D-----------------|    times 2
 G-----------------|
 B-----------------|
 e-----------------|


Guitar II

 E---3-3--------3-------------|
 A-------5-5-3-2--------------|
 D---------------     times 2-|
 G----------------------------|
 B----------------------------|
 e----------------------------|

Guitar I
E--7-7---------5--------------|
A--9-9-7-7-5-4-7--------------|
d-9-9-9-9-7-6-7---------------|
G------9-9-7-6----------------|          play at same time
B-----------------------------|            <<<<<<<<<<<
e-----------------------------|


Guitar II
E--7-7-5-5-4-0--|
A--9-9-7-7-6-0--|
d---------------|
G---------------|
B---------------|
e---------------|

Verse
GuitarI
E--7-7-5-5-4-12-12-12-|
A--7-7-5-5-4-12-12-12-|
G--7-7-5-5-4-12-12-12-|
B---------------------|
e---------------------|
thats all for now
Tap to rate this tab
# A B C D E F G H I J K L M N O P Q R S T U V W X Y Z