Song name
# A B C D E F G H I J K L M N O P Q R S T U V W X Y Z

Agnes Carlsson - You Rain tab

You Rain - Agnes
Standard Tuning
Tabbed by dantheagnesfan

Intro
-----
    Am7                C                 Em7
 E|--------3---------|-------0---------|-------0---------|----------------|
 B|--------1---------|-------1---------|-------3---------|----------------|
 G|------2-----------|-----0-----------|-----0-----------|----------------|
 D|----2-------------|---2-------------|---2-------------|----------------| Repeat
 A|--0---------------|-3---------------|-----------------|----------------|
 E|------------------|-----------------|-0---------------|----------------|


Verse 1
-------
(Part 1)
         Sometimes         you are
   Am7                C                 Em7
 E|----------3-------|---------0-------|-------0---------|----------------|
 B|----------1-------|---------1-------|-------3---------|----------------|
 G|------2-----------|-----0-----------|-----0-----------|----------------|
 D|----2-------------|---2-------------|---2-------------|----------------|
 A|--0---------------|-3---------------|-----------------|----------------|
 E|------------------|-----------------|-0---------------|----------------|


         A   one-       way              mirror
   Am7                C                 Em7
 E|----------3-------|---------0-------|-------0---------|----------------|
 B|----------1-------|---------1-------|-------3---------|----------------|
 G|------2-----------|-----0-----------|-----0-----------|----------------|
 D|----2-------------|---2-------------|---2-------------|----------------|
 A|--0---------------|-3---------------|-----------------|----------------|
 E|------------------|-----------------|-0---------------|----------------|


    F                 Dm7               G/B                 G           
        I can't           see through       But know          you're 
 E|-------1---------|---------1-------|-----------------|-----------------|
 B|-----1-----------|-----1-----------|---------3-------|-------0---------|
 G|---2-------------|---2-------------|-----0-----------|-----0-----------|
 D|-3---------------|-0---------------|---0-------------|---0-------------|
 A|-----------------|-----------------|-2---------------|-----------------|
 E|-----------------|-----------------|-----------------|-3---------------|


    F/C               G/D
    watch-            ing
 E|-----------------|-----------------|-----------------|-----------------|
 B|-------1---------|-(3~-------------|-----------------|-----------------|
 G|-----2---2-------|-)4~-------------|-----------------|-----------------|
 D|---3-------3-----|-(5~-------------|-----------------|-----------------|
 A|-3---------------|-)5~-------------|-----------------|-----------------|
 E|-----------------|-----------------|-----------------|-----------------|


(Part 2)
         You're in         the place
   Am7                C                 Em7
 E|-------------3----|---------0-------|-------0---------|----------------|
 B|-------------1----|---------1-------|-------3---------|----------------|
 G|------2-----------|-----0-----------|-----0-----------|----------------|
 D|----2-------------|---2-------------|---2-------------|----------------|
 A|--0---------------|-3---------------|-----------------|----------------|
 E|------------------|-----------------|-0---------------|----------------|


         Of  rage          and healing
   Am7                C                 Em7
 E|----------3-------|---------0-------|-------0---------|----------------|
 B|----------1-------|---------1-------|-------3---------|----------------|
 G|------2-----------|-----0-----------|-----0-----------|----------------|
 D|----2-------------|---2-------------|---2-------------|----------------|
 A|--0---------------|-3---------------|-----------------|----------------|
 E|------------------|-----------------|-0---------------|----------------|


    F                 Dm7               G/B                 G            
       And I              can feel          the storm     is
 E|--------1--------|---------1-------|-----------------|-----------------|
 B|-----1-----------|-----1-----------|---------3-------|-------0---------|
 G|---2-------------|---2-------------|-----0-----------|-----0-----------|
 D|-3---------------|-0---------------|---0-------------|---0-------------|
 A|-----------------|-----------------|-2---------------|-----------------|
 E|-----------------|-----------------|-----------------|-3---------------|


    F                 G
    build-            ing
 E|-----------------|-)3~-------------|-----------------|-----------------|
 B|-------1---------|-(3~-------------|-----------------|-----------------|
 G|-----2---2-------|-)4~-------------|-----------------|-----------------|
 D|---3-------3-----|-(5~-------------|-----------------|-----------------|
 A|-----------------|-)5~-------------|-----------------|-----------------|
 E|-1---------------|-(3~-------------|-----------------|-----------------|



Chorus 1
--------
(Part 1)
    C                                   Em
You rain        again             Inside            yourself
 E|---------0-------|---------1-------|---------0-------|---------0-------|
 B|-------1---1---1-|-------1---1---1-|-------0---0---0-|-------0---0---0-|
 G|-----0-------2---|-----0-------2---|-----0-------0---|-----0-------0---|
 D|---2-------------|---2-------------|---2-------------|---2-------------|
 A|-3---------------|-3---------------|-----------------|-2---------------|
 E|-----------------|-----------------|-0---------------|-----------------|

    Am                                  F       (for help)
So  no-         one hears          Your cries       for help
 E|---------0-------|---------0-------|---------1-------|---------1-------|
 B|-------1---1---1-|-------1---1---1-|-------1---1---1-|-------1---1---1-|
 G|-----2-------2---|-----2-------2---|-----2-------2---|-----2-------2---|
 D|---2-------------|---2-------------|---3-------------|---3-------------|
 A|-0---------------|-0---------------|-----------------|-3---------------|
 E|-----------------|-----------------|-1---------------|-----------------|

(Part 2)
    C                                   Em
You rain        again             Behind            your eyes
 E|---------0-------|---------1-------|---------0-------|---------0-------|
 B|-------1---1---1-|-------1---1---1-|-------0---0---0-|-------0---0---0-|
 G|-----0-------2---|-----0-------2---|-----0-------0---|-----0-------0---|
 D|---2-------------|---2-------------|---2-------------|---2-------------|
 A|-3---------------|-3---------------|-----------------|-2---------------|
 E|-----------------|-----------------|-0---------------|-----------------|

    Am                                  F
But I       can't     be your           sun     when                  You (rain)...
 E|---------0-------|---------0-------|---------1-------|---------1-------|
 B|-------1---1---1-|-------1---1---1-|-------1---1---1-|-------1---1---1-|
 G|-----2-------2---|-----2-------2---|-----2-------2---|-----2-------2---|
 D|---2-------------|---2-------------|---3-------------|---3-------------|
 A|-0---------------|-0---------------|-----------------|-3---------------|
 E|-----------------|-----------------|-1---------------|-----------------|



Verse 2 (Play as Verse 1 Part 2)
-------
(rain)
    C        Em7
  I know you try
Am7 C        Em7
  I know you love me
F       Dm7   G/B
  But when it gets too 
G     F   G     G-(extra bar)
  Overwhelming

Chorus 2 (Play as Chorus 1 Parts 1 & 2)
--------
    C 
You rain again
  Em 
Inside yourself
   Am 
So no-one hears
     F
Your cries for help
    C
You rain again
  Em
Behind your eyes
    Am
But I can't be
     F
Your sun when


Chorus 3 (Play as Chorus 1 Part 1)
--------
    C  
(You rain)  
Against the windows of your heart (you rain)
    Em 
You beat and tear yourself apart (you rain)
    Am 
You pour your soul onto the ground (you rain)
  F
Until you're spent and all cried out

Chorus 4 (Use Barre Chords from here until end)
--------
    Eb    (you rain again)              Gm (Inside yourself)
You rain        again               Inside          yourself
 E|---------3-------|---------3-------|---------3-------|---------3-------|
 B|-------4---4---4-|-------4---4---4-|-------3---3---3-|-------3---3---3-|
 G|-----3-------3---|-----3-------3---|-----3-------3---|-----3-------3---|
 D|---5-------------|---5-------------|---5-------------|---5-------------|
 A|-6---------------|-6---------------|-----------------|-5---------------|
 E|-----------------|-----------------|-3---------------|-----------------|

    Cm                                  Ab
So  no-         one hears          Your cries       for help
 E|---------3-------|---------3-------|---------4-------|---------4-------|
 B|-------4---4---4-|-------4---4---4-|-------4---4---4-|-------4---4---4-|
 G|-----5-------5---|-----5-------5---|-----5-------5---|-----5-------5---|
 D|---5-------------|---5-------------|---6-------------|---6-------------|
 A|-3---------------|-3---------------|-----------------|-6---------------|
 E|-----------------|-----------------|-4---------------|-----------------|

(Part 2)
    Eb    (you rain again)              Gm (behind your eyes)
You rain        again             Behind            your eyes
 E|---------3-------|---------3-------|---------3-------|---------3-------|
 B|-------4---4---4-|-------4---4---4-|-------3---3---3-|-------3---3---3-|
 G|-----3-------3---|-----3-------3---|-----3-------3---|-----3-------3---|
 D|---5-------------|---5-------------|---5-------------|---5-------------|
 A|-6---------------|-6---------------|-----------------|-5---------------|
 E|-----------------|-----------------|-3---------------|-----------------|

    Cm                                  Ab
But I       can't     be Your           sun     when                  (Against...)
 E|---------3-------|---------3-------|---------4-------|---------4-------|
 B|-------4---4---4-|-------4---4---4-|-------4---4---4-|-------4---4---4-|
 G|-----5-------5---|-----5-------5---|-----5-------5---|-----5-------5---|
 D|---5-------------|---5-------------|---6-------------|---6-------------|
 A|-3---------------|-3---------------|-----------------|-6---------------|
 E|-----------------|-----------------|-4---------------|-----------------|


Chorus 5 (Play as Chorus 4 Part 1) 
--------
  Eb 
Against the windows of your heart
    Gm 
You beat and tear yourself apart
    Cm 
You pour your soul onto the ground
  Ab
Until you're spent and all cried out


Chorus 6 (Play as Chorus 4 Part 2)
--------
    Eb 
You rain again inside yourself
   Gm 
So no-one hears your cries for help
    Cm
You rain again behind your eyes
    Ab
But I can't be your sun when
    Cm
You rain
 E|-)3~-------------|
 B|-(4~-------------|
 G|-)5~-------------|
 D|-(5~-------------|
 A|-)3~-------------|
 E|-----------------|


Tap to rate this tab
# A B C D E F G H I J K L M N O P Q R S T U V W X Y Z