Song name
# A B C D E F G H I J K L M N O P Q R S T U V W X Y Z

Agnes Obel - Brother Sparrow tab

intro
e|----------------|------------------------------------------------|
b|-0-0-0-0-0-0-1-1|-0-0-0-0-0-0-1-1-1-1-1-1-1-1-1-1-0-0-0-0-0-0-0-0|
g|-0-0-0-0-0-0-0-0|-0-0-0-0-0-0-0-0-2-2-2-2-2-2-2-2-0-0-0-0-0-0-0-0|
d|2-2-0-0-0-0--2-2|2-2-0-0-0-0--2-2-2-2-2-2-2-2-2-2-0-0-0-0-0-0-0-0|
A|------------3-3-|------------3-3-0-0-0-0-0-0-0-0-----------------|
E|----------------|--------------------------------3-3-3-3-3-3-3-3-|

verse 1
e|----------------------------|----------------------------|
b|-0-0-0-0-0-0-1-1-1-1-1-1-1-1|-0-0-0-0-0-0-1-1-1-1-1-1-1-1|
g|-0-0-0-0-0-0-0-0-0-0-0-0-0-0|-0-0-0-0-0-0-0-0-2-2-2-2-2-2|
d|2-2-0-0-0-0--2-2-2-2-2-2-2-2|2-2-0-0-0-0--2-2-2-2-2-2-2-2|
A|------------3-3-3-3-3-3-3-3-|------------3-2-0-0-0-0-0-0-|
E|----------------------------|----------------------------|

e|--------------------------------------------|
b|-0-0-0-0-0-0-1-1-1-1-1-1-1-1-0-0-0-0-0-0-0-0|
g|-0-0-0-0-0-0-0-0-0-0-0-0-0-0-0-0-0-0-0-0-0-0|
d|2-2-0-0-0-0--2-2-2-2-2-2-2-2-0-0-0-0-0-0-0-0|
A|------------3-3-3-3-3-3-3-3-----------------|
E|----------------------------3-3-3-3-3-3-3-2-|

e|----------------------------|----------------------------|
b|-0-0-0-0-0-0-1-1-1-1-1-1-1-1|-0-0-0-0-0-0-1-1-1-1-1-1-1-1|
g|-0-0-0-0-0-0-0-0-0-0-0-0-0-0|-0-0-0-0-0-0-0-0-0-0-0-0-0-0|
d|2-2-0-0-0-0--2-2-2-2-2-2-2-2|2-2-0-0-0-0--2-2-2-2-2-2-2-2|
A|------------3-3-3-3-3-3-3-3-|------------3-3-3-3-3-3-3-3-|
E|----------------------------|----------------------------|

e|------------------------------------------------|
b|-0-0-0-0-0-0-1-1-1-1-1-1-1-1-1-1-0-0-0-0-0-0-0-0|
g|-0-0-0-0-0-0-0-0-2-2-2-2-2-2-2-2-0-0-0-0-0-0-0-0|
d|2-2-0-0-0-0--2-2-2-2-2-2-2-2-2-2-0-0-0-0-0-0-0-0|
A|------------3-2-0-0-0-0-0-0-0-0-----------------|
E|--------------------------------3-3-3-3-3-3-3-2-|

bridge
e|--------------------------------|--------------------------------|
b|-0-0-0-0-1-1-1-1-0-0-0-0-0-0-0-0|-0-0-0-0-1-1-1-1-0-0-0-0-0-0-0-0|
g|-0-0-0-0-0-0-0-0-0-0-0-0-0-0-0-0|-0-0-0-0-0-0-0-0-0-0-0-0-0-0-0-0|
d|2-2-0-0--2-2-2-2-0-0-0-0-0-0-0-0|2-2-0-0--2-2-2-2-0-0-0-0-0-0-0-0|
A|--------3-3-2-2-----------------|--------3-3-2-2-----------------|
E|----------------3-3-3-3-3-3-3-3-|----------------3-3-3-3-3-3-3-3-|

verse 2
e|----------------------------|----------------------------|
b|-0-0-0-0-0-0-1-1-1-1-1-1-1-1|-0-0-0-0-0-0-1-1-1-1-1-1-1-1|
g|-0-0-0-0-0-0-0-0-0-0-0-0-0-0|-0-0-0-0-0-0-0-0-2-2-2-2-2-2|
d|2-2-0-0-0-0--2-2-2-2-2-2-2-2|2-2-0-0-0-0--2-2-2-2-2-2-2-2|
A|------------3-3-3-3-3-3-3-3-|------------3-2-0-0-0-0-0-0-|
E|----------------------------|----------------------------|

e|--------------------------------------------|
b|-0-0-0-0-1-1-1-1-1-1-1-1-1-1-0-0-0-0-0-0-0-0|
g|-0-0-0-0-0-0-2-2-2-2-2-2-2-2-0-0-0-0-0-0-0-0|
d|2-2-0-0--2-2-2-2-2-2-2-2-2-2-0-0-0-0-0-0-0-0|
A|--------3-2-0-0-0-0-0-0-0-0-----------------|
E|----------------------------3-3-3-3-3-3-3-3-|

e|----------------------------|------------------------|
b|-0-0-0-0-0-0-1-1-1-1-1-1-1-1|-0-0-0-0-0-0-1-1-1-1-1-1|
g|-0-0-0-0-0-0-0-0-0-0-0-0-0-0|-0-0-0-0-0-0-0-0-0-0-0-0|
d|2-2-0-0-0-0--2-2-2-2-2-2-2-2|2-2-0-0-0-0--2-2-2-2-2-2|
A|------------3-3-3-3-3-3-3-3-|------------3-3-3-3-3-3-|
E|----------------------------|------------------------|
e|------------------------------------------------|
b|-0-0-0-0-0-0-1-1-1-1-1-1-1-1-1-1-0-0-0-0-0-0-0-0|
g|-0-0-0-0-0-0-0-0-2-2-2-2-2-2-2-2-0-0-0-0-0-0-0-0|
d|2-2-0-0-0-0--2-2-2-2-2-2-2-2-2-2-0-0-0-0-0-0-0-0|
A|------------3-3-0-0-0-0-0-0-0-0-----------------|
E|--------------------------------3-3-3-3-3-3-3-3-|

chorus
e|--------------------------------|--------------------------------|
b|-0-0-0-0-0-0-0-0-0-0-0-0-0-0-0-0|-0-0-0-0-0-0-0-0-0-0-0-0-0-0-0-0|
g|-0-0-0-0-0-0-0-0-0-0-0-0-0-0-0-0|-0-0-0-0-0-0-0-0-0-0-0-0-0-0-0-0|
d|-0-0-0-0-0-0-0-0-0-0-0-0-0-0-0-0|-0-0-0-0-0-0-0-0-0-0-0-0-0-0-0-0|
A|3-3-3-3-3-3-3-3-5-5-5-5-5-5-5-5-|3-3-3-3-3-3-3-3-5-5-5-5-5-5-5-5-|
E|--------------------------------|--------------------------------|

e|----------------------------------------|
b|-0-0-0-0-0-0-0-0-0-0-0-0-0-0-0-0-0-0-0-0|
g|-0-0-0-0-0-0-0-0-0-0-0-0-0-0-0-0-0-0-0-0|
d|-0-0-0-0-0-0-0-0-0-0-0-0-0-0-0-0-0-0-0-0|
A|3-3-3-3-3-3-3-3-5-5-2-2-----------------|
E|------------------------3-3-3-3-3-3-3-3-|

e|--------------------------------|--------------------------------|
b|-0-0-0-0-0-0-0-0-0-0-0-0-0-0-0-0|-0-0-0-0-0-0-0-0-0-0-0-0-0-0-0-0|
g|-0-0-0-0-0-0-0-0-0-0-0-0-0-0-0-0|-0-0-0-0-0-0-0-0-0-0-0-0-0-0-0-0|
d|-0-0-0-0-0-0-0-0-0-0-0-0-0-0-0-0|-0-0-0-0-0-0-0-0-0-0-0-0-0-0-0-0|
A|3-3-3-3-3-3-3-3-5-5-5-5-5-5-5-5-|3-3-3-3-3-3-3-3-5-5-5-5-5-5-5-5-|
E|--------------------------------|--------------------------------|

e|----------------------------------------|
b|-0-0-0-0-0-0-0-0-0-0-0-0-0-0-0-0-0-0-0-0|
g|-0-0-0-0-0-0-0-0-0-0-0-0-0-0-0-0-0-0-0-0|
d|-0-0-0-0-0-0-0-0-0-0-0-0-0-0-0-0-0-0-0-0|
A|3-3-3-3-3-3-3-3-5-5-2-2-----------------|
E|------------------------3-3-3-3-3-3-3-3-|

outro
e|----------------------------------|--------------------------------|
b|-0-0-0-0-1-1-0-0-0-0-0-0-0-0-0-0-0|-0-0-0-0-1-1-0-0-0-0-0-0-0-0-0-0|
g|-0-0-0-0-0-0-0-0-0-0-0-0-0-0-0-0-0|-0-0-0-0-0-0-0-0-0-0-0-0-0-0-0-0|
d|2-2-0-0--2-2-0-0-0-0-0-0-0-0-0-0-0|2-2-0-0--2-2-0-0-0-0-0-0-0-0-0-0|
A|--------3-3-2-2-2-----------------|--------3-3-2-2-----------------|
E|------------------3-3-3-3-3-3-3-3-|----------------3-3-3-3-3-3-3-3-|

e|--------------------------------|--------------------|
b|-0-0-0-0-1-1-0-0-0-0-0-0-0-0-0-0|-0-0-0-0-1-1-0-0----|
g|-0-0-0-0-0-0-0-0-0-0-0-0-0-0-0-0|-0-0-0-0-0-0-0-0----|
d|2-2-0-0--2-2-0-0-0-0-0-0-0-0-0-0|2-2-0-0--2-2-0-0----|
A|--------3-3-2-2-----------------|--------3-3-2-2-----|
E|----------------3-3-3-3-3-3-3-3-|----------------3---|
Tap to rate this tab
# A B C D E F G H I J K L M N O P Q R S T U V W X Y Z