Song name
# A B C D E F G H I J K L M N O P Q R S T U V W X Y Z

Agnostic Front - Gotta Go tab

Gotta Go
Agnostic Front
Tuning - E A D G B e

I couldn't find the right tab out there so im gonna make my own
hope you like it and think its right. Burn_79@hotmail.com

Intro
|---0-0---------3-3------------2h3p2------------------------|
|-------0-----------3----3---3-------3----------------------|
|---------1-----------4--2-2-----------2--------------------|
|-2-----------5----------0----------------2-----------------|
|-2-----------5---------------------------2-----------------|
|-0-----------3---------------------------0-----------------|

Verse
|--------------------------------------------------------------------------|
|--------------------------------------------------------------------------|
|-9-9-9-9-9-9-9-9-12-12-12-12-12-12-12-12-7-7-7-7-7-7-7-7-9-9-9-9-9-9-9-9--|
|-9-9-9-9-9-9-9-9-12-12-12-12-12-12-12-12-7-7-7-7-7-7-7-7-9-9-9-9-9-9-9-9--|
|-7-7-7-7-7-7-7-7-10-10-10-10-10-10-10-10-5-5-5-5-5-5-5-5-7-7-7-7-7-7-7-7--|
|--------------------------------------------------------------------------|

Chorus
|-----------------------------------------------------------|
|-----------------------------------------------------------|
|-9-9----12-12----7-7----9-9--------------------------------|
|-9-9----12-12----7-7----9-9--------------------------------|
|-7-7----10-10----5-5----7-7--------------------------------|
|-----------------------------------------------------------|
Tap to rate this tab
# A B C D E F G H I J K L M N O P Q R S T U V W X Y Z