Song name
# A B C D E F G H I J K L M N O P Q R S T U V W X Y Z

Agnostic Front - Your Mistake tab

-------------------------------------------------------------------------------
                        YOUR MISTAKE - Agnostic Front
-------------------------------------------------------------------------------
Tabbed by: min0r_threat
E-mail: ngrantj

Tuning: Standard

INTRO/RIFF
e|----------------------------------|
B|----------------------------------|
G|----------------------------------|
D|------7-6-4-----------------------|
A|--9---5-4-2-----------------------|
E|--7-------------------------------|

VERSE
e|----------------------------------|
B|----------------------------------|
G|----------------------------------|
D|-------------7-6-4----------------|
A|--9999-9999--5-4-2----------------|
E|--7777-7777-----------------------|

LEAD-IN
e|----------------------------------|
B|----------------------------------|
G|----------------------------------|
D|----------------------------------|
A|--5--7--9-------------------------|
E|--3--5--7-------------------------|

CHORUS
e|---------------------------------------------------------------------|
B|---------------------------------------------------------------------|
G|---------------------------------------------------------------------|
D|---------------------------------------------------------------------|
A|--9999-55-77--9999-55-77--9999-55-77--9999-55-77--5555-7777----------|
E|--7777-33-55--7777-33-55--7777-33-55--7777-33-55--3333-5555----------|

BRIDGE
e|----------------------------------------------|
B|----------------------------------------------|
G|----------------------------------------------|
D|-----------7-7-7-7----------------------------|
A|--9-9-9-9--5-5-5-5--7-7-7-7--5--7-------------|
E|--7-7-7-7-----------5-5-5-5--3--5-------------|

OUTRO
e|---------------------------------------------------------------------|
B|---------------------------------------------------------------------|
G|---------------------------------------------------------------------|
D|---------7-6-4----------7-6-4----------7-6-4-------------------------|
A|--5-7-9--5-4-2---5-7-9--5-4-2---5-7-9--5-4-2---5--7--9------9///-----|
E|--3-5-7----------3-5-7----------3-5-7----------3--5--7------7///-----|

SONG STRUCTURE:
INTRO x4
VERSE x6
LEAD-IN
CHORUS x3
BRIDGE x4
INTRO/RIFF x2
VERSE x2
OUTRO

And that's it!
Tap to rate this tab
# A B C D E F G H I J K L M N O P Q R S T U V W X Y Z