Song name
# A B C D E F G H I J K L M N O P Q R S T U V W X Y Z

Agnostic Front - So Pure To Me tab

Help us improve GuitareTab! Take a short survey!
INTRO/RIT
e|-----------------------------------------------------------|
b|-----------------------------------------------------------|
g|-----------------------------------------------------------|
d|-7-7-7-7-7-55-10-10-10-10-10-55-7-7-7-7-7-55-0-0--3---3--55|
a|-7-7-7-7-7-55-10-10-10-10-10-55-7-7-7-7-7-55-0-0--3---3--55|
D|-7-7-7-7-7-55-10-10-10-10-10-55-7-7-7-7-7-55-0-0--3---3--55|

VERSE
e|------------------------------------------------------|-----------------------|
b|------------------------------------------------------|-----------------------|
g|------------------------------------------------------|-----------------------|
d|7----7/8---7---7/8---7-5-----7----7/8---7---7/8-------|5----------------------|
a|7-77-7/8-8-7-7-7/8-8-7-5-----7-77-7/8-8-7-7-7/8--5555-|5-55555555555555 etc..-|
D|7-77-7/8-8-7-7-7/8-8-7-5-----7-77-7/8-8-7-7-7/8--5555-|5-55555555555555 etc..-|
PM  ..     .   .     .           ..     .   .      ....    .....................


RIT
e|-----------------------------------------------------------|
b|-----------------------------------------------------------|
g|-----------------------------------------------------------|
d|-7-7-7-7-7-55-10-10-10-10-10-55-7-7-7-7-7-55-0-0--3---3--55|
a|-7-7-7-7-7-55-10-10-10-10-10-55-7-7-7-7-7-55-0-0--3---3--55|
D|-7-7-7-7-7-55-10-10-10-10-10-55-7-7-7-7-7-55-0-0--3---3--55|


VERSE
e|------------------------------------------------------|-----------------------|
b|------------------------------------------------------|-----------------------|
g|------------------------------------------------------|-----------------------|
d|7----7/8---7---7/8---7-5-----7----7/8---7---7/8-------|5----------------------|
a|7-77-7/8-8-7-7-7/8-8-7-5-----7-77-7/8-8-7-7-7/8--5555-|5-55555555555555 etc..-|
D|7-77-7/8-8-7-7-7/8-8-7-5-----7-77-7/8-8-7-7-7/8--5555-|5-55555555555555 etc..-|
PM  ..     .   .     .           ..     .   .      ....    .....................

BRIDGE
e|--------------------------------------|
b|--------------------------------------|
g|--------------------------------------|
d|7-7-7--7-7-7--77-5-5-5--5-5-5-5-5-57\-|
a|7-7-7--7-7-7--77-5-5-5--5-5-5-5-5-57\-|
D|7-7-7--7-7-7--77-5-5-5--5-5-5-5-5-57\-|

OUTRO/RIT

By DonD
thunderstruck_666@hotmail.com
Related for So Pure To Me tab