Guitaretab - guitar tabs
Song name
# A B C D E F G H I J K L M N O P Q R S T U V W X Y Z

Agnostic Front - Skate Rock tab

-----------------------------------------------------------------------------
			    Skate Rock - Agnostic Front
-----------------------------------------------------------------------------
Tabbed by:James Marsh
Tuning:EADGBe

This song is really fast, so you might want to tune it to Drop D. But this is how it's 
played.(There's actually no guitar in the chorus, but I wrote out what you can play there 
you want.)
[ Tab from: http://www.guitaretab.com/a/agnostic-front/95875.html ]
(Intro/Verse)
e|-----------------------------------------------------------------|
B|-----------------------------------------------------------------|
G|-----------------------------------------------------------------|
D|-----------------------------------------------------------------|Repeat
A|-2-2-2-2--7--6--4--2-2-2-2--7--6--4--2-2-2-2--7-7-7-7-9-9-9-9-9--|
E|-0-0-0-0--5--4--2--0-0-0-0--5--4--2--0-0-0-0--5-5-5-5-7-7-7-7-7--|
(Prechorus)
e|-----------------------------------------------------------------|
B|-----------------------------------------------------------------|
G|-----------------------------------------------------------------|Repeat
D|-----------------------------------------------------------------|
A|-11-11-11-11-11-11-11-11--7-7-7-7-7-7-7-7--12-12---5-5---7-------|
E|-9--9--9--9--9--9--9--9---5-5-5-5-5-5-5-5--10-10---3-3---5-------|
(Chorus)
e|----------------------------------------|
B|----------------------------------------|
G|----------------------------------------|
D|----------------------------------------|Repeat
A|--2-2-2-2-7-7-7-7-9-9-9-9-7-7-7-7-------|
E|--0-0-0-0-5-5-5-5-7-7-7-7-5-5-5-5-------|

END

| /  slide up
| \  slide down
| h  hammer-on
| p  pull-off
| ~  vibrato
| +  harmonic
Related for Skate Rock tab
Advertisement will be closed in 10 seconds