Song name
# A B C D E F G H I J K L M N O P Q R S T U V W X Y Z

Agony Scene - Paint It Black tab

Paint It Black                                   Drop C Tuning for 2 guitars
by The Agony Scene                               C G C F A D
Tabbed by Axe-Maniac

INTRO 
(clean)
|------------------------------------------|
|------------------------------------------|
|-----------/12----------------------------|
|--12-14-15-----15-14-12-12-11-12-14-14~---|
|------------------------------------------|
|------------------------------------------|

(dist.)
|----------------------|
|----------------------|
|----------------------|
|--0~---0~---0~---0~---|
|--0~---0~---0~---0~---|
|--0~---0~---0~---0~---|

VERSE
|--------------------------------|
|--------------------------------|
|--------------------------------|
|--0-2-3-5-3-2-0-0--0-2-0h2p0----|
|-----------------4-----------4--|
|--------------------------------|
|                                | x2
|--------------------------------|
|--------------------------------|
|--------------------------------|
|--0--0--------------------------|
|--0--0--------------------------|
|--0--0--------------------------|
  |_PM_|

CHORUS
|----------------------------------------------------------------------|
|----------------------------------------------------------------------|
|----------------------------------------------------------------------|
|--12--12-12--10--10-10--3--3-5--5-5-5-7-7-7-7-7-7-7-7-7-7-7-7-7-7-7-7-|
|--12--12-12--10--10-10--3--3-5--5-5-5-7-7-7-7-7-7-7-7-7-7-7-7-7-7-7-7-|
|--12--12-12--10--10-10--3--3-5--5-5-5-7-7-7-7-7-7-7-7-7-7-7-7-7-7-7-7-|
                                        |_____PM______|
|--------------------------------------------------------------|
|--------------------------------------------------------------|
|--------------------------------------------------------------|
|--12--12-12--10--10-10--3--3-5--5-5-5-7--7--7--7--7--7--7--7--|
|--12--12-12--10--10-10--3--3-5--5-5-5-7--7--7--7--7--7--7--7--|
|--12--12-12--10--10-10--3--3-5--5-5-5-7--7--7--7--7--7--7--7--|

VERSE
|--------------------------------|
|--------------------------------|
|--------------------------------|
|--0-2-3-5-3-2-0-0--0-2-0h2p0----|
|-----------------4-----------4--|
|--------------------------------|
|                                | x2
|--------------------------------|
|--------------------------------|
|--------------------------------|
|--0--0--------------------------|
|--0--0--------------------------|
|--0--0--------------------------|
  |_PM_|

CHORUS
|----------------------------------------------------------------------|
|----------------------------------------------------------------------|
|----------------------------------------------------------------------|
|--12--12-12--10--10-10--3--3-5--5-5-5-7-7-7-7-7-7-7-7-7-7-7-7-7-7-7-7-|
|--12--12-12--10--10-10--3--3-5--5-5-5-7-7-7-7-7-7-7-7-7-7-7-7-7-7-7-7-|
|--12--12-12--10--10-10--3--3-5--5-5-5-7-7-7-7-7-7-7-7-7-7-7-7-7-7-7-7-|
                                        |_____PM______|
|--------------------------------------------------------------|
|--------------------------------------------------------------|
|--------------------------------------------------------------|
|--12--12-12--10--10-10--3--3-5--5-5-5-7--7--7--7--7--7--7--7--|
|--12--12-12--10--10-10--3--3-5--5-5-5-7--7--7--7--7--7--7--7--|
|--12--12-12--10--10-10--3--3-5--5-5-5-7--7--7--7--7--7--7--7--|

VERSE
|--------------------------------|
|--------------------------------|
|--------------------------------|
|--0-2-3-5-3-2-0-0--0-2-0h2p0----| 
|-----------------4-----------4--|
|--------------------------------|
|                                | x2
|----8--8--8--8--8--8--8--8------|
|--------------------------------|
|--------------------------------|
|--------------------------------|
|--------------------------------|
|--------------------------------|

CHORUS
|----------------------------------------------------------------------|
|----------------------------------------------------------------------|
|----------------------------------------------------------------------|
|--12--12-12--10--10-10--3--3-5--5-5-5-7-7-7-7-7-7-7-7-7-7-7-7-7-7-7-7-|
|--12--12-12--10--10-10--3--3-5--5-5-5-7-7-7-7-7-7-7-7-7-7-7-7-7-7-7-7-|
|--12--12-12--10--10-10--3--3-5--5-5-5-7-7-7-7-7-7-7-7-7-7-7-7-7-7-7-7-|
                                        |_____PM______|
|--------------------------------------------------------------|
|--------------------------------------------------------------|
|--------------------------------------------------------------|
|--12--12-12--10--10-10--3--3-5--5-5-5-7--7--7--7--7--7--7--7--|
|--12--12-12--10--10-10--3--3-5--5-5-5-7--7--7--7--7--7--7--7--|
|--12--12-12--10--10-10--3--3-5--5-5-5-7--7--7--7--7--7--7--7--|

INTERLUDE 
(clean)
|--------------------------------------------------|
|--------------------------------------------------|
|------------12------------------------------------| x4
|--12-14-15-----15-14-12-12-11-12-14-12h14p12-11~--|
|--------------------------------------------------|
|--------------------------------------------------|
|  (dist.)                                         |
|---------------|--------------this-4th-time-------|
|---------------|----------------------------------|
|---------------|----------------------------------|
|--0--0----x4---|--0-0-0-0-0-0-0-0-----------------|
|--0--0---------|--0-0-0-0-0-0-0-0----pick-slide---|
|--0--0---------|--0-0-0-0-0-0-0-0-----------------|
  |_PM_|          |______PM_______|

CHORUS
|----------------------------------------------------------------------|
|----------------------------------------------------------------------|
|----------------------------------------------------------------------|
|--12--12-12--10--10-10--3--3-5--5-5-5-7-7-7-7-7-7-7-7-7-7-7-7-7-7-7-7-|
|--12--12-12--10--10-10--3--3-5--5-5-5-7-7-7-7-7-7-7-7-7-7-7-7-7-7-7-7-|
|--12--12-12--10--10-10--3--3-5--5-5-5-7-7-7-7-7-7-7-7-7-7-7-7-7-7-7-7-|
                                        |_____PM______|
|--------------------------------------------------------------|
|--------------------------------------------------------------|
|--------------------------------------------------------------|
|--12--12-12--10--10-10--3--3-5--5-5-5-7--7--7--7--7--7--7--7--|
|--12--12-12--10--10-10--3--3-5--5-5-5-7--7--7--7--7--7--7--7--|
|--12--12-12--10--10-10--3--3-5--5-5-5-7--7--7--7--7--7--7--7--|

VERSE
|--------------------------------|
|--------------------------------|
|--------------------------------|
|--0-2-3-5-3-2-0-0--0-2-0h2p0----|
|-----------------4-----------4--|
|--------------------------------|
|                                | x2
|--------------------------------|
|--------------------------------|
|--------------------------------|
|--0--0--------------------------|
|--0--0--------------------------|
|--0--0--------------------------|
  |_PM_|

CHORUS
|----------------------------------------------------------------------|
|----------------------------------------------------------------------|
|----------------------------------------------------------------------|
|--12--12-12--10--10-10--3--3-5--5-5-5-7-7-7-7-7-7-7-7-7-7-7-7-7-7-7-7-|
|--12--12-12--10--10-10--3--3-5--5-5-5-7-7-7-7-7-7-7-7-7-7-7-7-7-7-7-7-|
|--12--12-12--10--10-10--3--3-5--5-5-5-7-7-7-7-7-7-7-7-7-7-7-7-7-7-7-7-|
                                        |_____PM______|
|--------------------------------------------------------------|
|--------------------------------------------------------------|
|--------------------------------------------------------------|
|--12--12-12--10--10-10--3--3-5--5-5-5-7--7--7--7--7--7--7--7--|
|--12--12-12--10--10-10--3--3-5--5-5-5-7--7--7--7--7--7--7--7--|
|--12--12-12--10--10-10--3--3-5--5-5-5-7--7--7--7--7--7--7--7--|

BRIDGE
|----------------------------------------------------------------------|
|----------------------------------------------------------------------|
|----------------------------------------------------------------------|
|--12-12-12---14-14-14---15-15-15---14-14-14---14-14-14~--11-11-11~----|
|--12-12-12---14-14-14---15-15-15---14-14-14---14-14-14~--11-11-11~----|
|--12-12-12---14-14-14---15-15-15---14-14-14---14-14-14~--11-11-11~----|
|                                                                      |
|----------------------------------------------------------------------|
|----------------------------------------------------------------------|
|----------------------------------------------------------------------|
|--12--12-12--10--10-10--3--3-5--5-5-5-7-7-7-7-7-7-7-7-7-7-7-7-7-7-7-7-|
|--12--12-12--10--10-10--3--3-5--5-5-5-7-7-7-7-7-7-7-7-7-7-7-7-7-7-7-7-|
|--12--12-12--10--10-10--3--3-5--5-5-5-7-7-7-7-7-7-7-7-7-7-7-7-7-7-7-7-|
                                        |_____PM______|

|----------------------------------------------------------------------|
|----------------------------------------------------------------------|
|----------------------------------------------------------------------|
|--12-12-12---14-14-14---15-15-15---14-14-14---14-14-14~--11-11-11~----|
|--12-12-12---14-14-14---15-15-15---14-14-14---14-14-14~--11-11-11~----|
|--12-12-12---14-14-14---15-15-15---14-14-14---14-14-14~--11-11-11~----|
|                                                                      |
|----------------------------------------------------------------------|
|----------------------------------------------------------------------|
|----------------------------------------------------------------------|
|--12--12-12--10--10-10--3--3-5--5-5-5-7---7---7---7---7---7---7---7---|
|--12--12-12--10--10-10--3--3-5--5-5-5-7---7---7---7---7---7---7---7---|
|--12--12-12--10--10-10--3--3-5--5-5-5-7---7---7---7---7---7---7---7---|

OUTRO
(trem.)
|------------------|------------------------|
|------------------|------------------------|
|------------------|------------------------|
|--0-2-3-5-3-2-0---|--0---0-2-0h2p0---------| x12 
|------------------|----4-----------4-------|
|------------------|------------------------|
|                  |                        |  
|-------------------------------------------|
|-------------------------------------------|
|-------------------------------------------|
|-0---0-0-0-0---0-0-0-0---0-0-0-0-0-0-0-0-0-| x24
|-0---0-0-0-0---0-0-0-0---0-0-0-0-0-0-0-0-0-|
|-0---0-0-0-0---0-0-0-0---0-0-0-0-0-0-0-0-0-|
 |___________________PM____________________|

|-------------------------------------------|
|-------------------------------------------|
|-------------------------------------------| x4
|-0---0-0-0-0---0-0-0-0---0-0-0-0-0-0-0-0-0-|
|-0---0-0-0-0---0-0-0-0---0-0-0-0-0-0-0-0-0-|
|-0---0-0-0-0---0-0-0-0---0-0-0-0-0-0-0-0-0-|
 |___________________PM____________________|

|------|
|------|
|------|
|--0---|
|--0---|
|--0---|
 |_PM_|
Tap to rate this tab
# A B C D E F G H I J K L M N O P Q R S T U V W X Y Z