Song name
# A B C D E F G H I J K L M N O P Q R S T U V W X Y Z

Agony Scene - Procession tab

Help us improve GuitareTab! Take a short survey!
Tabbed by:GaNdY
Band:The Agony Scene
Song:Procession
Album:The Darkest Red
Tuning (B,F#,B,E,G#,C#)

This may not be 100% correct and there is not the exact amount of chords for each
part, you just have to listen for the amount and exact rythym :)

- = Palm Mute
~ = Let ring

Intro:
C#|------------------------------------------------------|
G#|------------------------------------------------------|
E |------------------------------------------------------|
B |--1-0-00---000-1-0-00---------------------------------|
F#|--1-0-00---000-1-0-00---------------------------------|
B |--1-0-00---000-1-0-00---------------------------------|
         --   ---     --

Verse:1      
C#|------------------------------------------------------|
G#|------------------------------------------------------|
E |------------------------------------------------------|
B |--1-0~--1-0~--3-6-------------------------------------|
F#|--1-0~--1-0~--3-6-------------------------------------|
B |--1-0~--1-0~--3-6-------------------------------------|


Verse:2
C#|------------------------------------------------------|
G#|------------------------------------------------------|
E |------------------------------------------------------|
B |--1-0-00---000-1-0-00--3-6----------------------------|
F#|--1-0-00---000-1-0-00--3-6----------------------------|
B |--1-0-00---000-1-0-00--3-6----------------------------|
         --   ---     --

Chorus: 
C#|------------------------------------------------------|
G#|------------------------------------------------------|
E |------------------------------------------------------|
B |--3-5------------------------------------------3-5--0-|
F#|--1-3-65p0--65p0--65p0--65p0-on last time play-1-3--0-|
B |----------------------------------------------------0-|


Bridge:
C#|------------------------------------------------------|
G#|------------------------------------------------------|
E |------------------------------------------------------|
B |---------0---------00-0-00--8-------------------------|
F#|---------0---------00-0-00--8-------------------------|
B |--7-88---0-x4 then-00-0-00--8-------------------------|


Hope you enjoy...any comments email andy_c_6@hotmail.com
Related for Procession tab