Song name
# A B C D E F G H I J K L M N O P Q R S T U V W X Y Z

Agony Scene - The Damned tab

Maybe you heard this song before On TV in a different, softer Version. I lieke this Song 
so I tabbed it. Its pretty easy. Standard Tuning.


Intro

E||-------------------------------------------------------------------|
H||-------------------------------------------------------------------|
G||-------------------------------------------------------------------|
D||---10-11-13/14\13-11-10-11-10-11-13-11--11\10----------------------|
A||-------------------------------------------------------------------|
E||-------------------------------------------------------------------|

Pre-Intro

E||-------------------------------------------------------------------|
H||-------------------------------------------------------------------|
G||-------------------------------------------------------------------|
D||----x------x------x------x-----------------------------------------|
A||---11-----11-----11-----11-----------------------------------------|
E||----9------9------9------9-----------------------------------------|

Verse

E||-------------------------------------------------------------------|
H||-------------------------------------------------------------------|
G||-------------------------------------------------------------------|
D||--------------------------------x-x--------------------------------|
A||-------------------------------1111--------------------------------|
E||-8-9-11-12-11-9-8-9-8-9-11-9\8--9-9--8-9-11-12-12-9-8-9-8-9-11-9\8-|

Chorus

E||-------------------------------------------------------------------|
H||-------------------------------------------------------------------|
G||-------------------------------------------------------------------|
D||----11-11-11--9-9-9--4-4-3/4-4-4/6-6-6-6-6-6-6-6-6-----------------|
A||----11-11-11--9-9-9--4-4-3/4-4-4/6-6-6-6-6-6-6-6-6---------x2------|
E||-----9--9--9--7-7-7--2-2-1/2-2-2/4-4-4-4-4-4-4-4-4-----------------|

Verse 2

Chorus

Verse 3

Chorus

Bridge

E||-------------------------------------------------------------------|
H||-------------------------------------------------------------------|
G||-------------------------------------------------------------------|
D||--10-11-13/14\13-11-10-11-10-11-13-11\10-----x--x------------------|
A||--------------------------------------------11-11-----------x4-----|
E||---------------------------------------------9--9------------------|

Chorus

Verse

Chorus x2

Outro:

E||-------------------------------------------------------------------|
H||-------------------------------------------------------------------|
G||-------------------------------------------------------------------|
D||-------------------------------------------------------------------|
A||-------------------------------------------------------------------|
E||-888999111111121212111111999888999888999111111999898~-------x8-----|

E||-------------------------------------------------------------------|
H||-------------------------------------------------------------------|
G||-------------------------------------------------------------------|
D||--11---11-11-11-11---11-11-11-11---11-11-11-11-11-11-11-11-11-11---|
A||--11---11-11-11-11---11-11-11-11---11-11-11-11-11-11-11-11-11-11-X3|
E||---9----9--9--9--9----9--9--9--9----9--9--9--9--9--9--9--9--9--9---|


This song is fun to play.
I hope you enjoy it.
Tap to rate this tab
# A B C D E F G H I J K L M N O P Q R S T U V W X Y Z