Song name
# A B C D E F G H I J K L M N O P Q R S T U V W X Y Z

Agony Scene - Paint It Black tab

-------------------------------------------------------------
			              Paint it Black - The Agony Scene
-------------------------------------------------------------
Tabbed by: hakysackr
Email: hakysackr@aim.com

Tuning: Drop C

D|--------------------------------------------------------------------------|
A|--------------------------------------------------------------------------|
F|-7---9---10---10/12---10---9---7---7---6---7---9---9----------------------|
C|---0---0----0-------0----0---0---0---0---0---0---0------------------------|
G|--------------------------------------------------------------------------|
C|--------------------------------------------------------------------------|

D|--------------------------------------------------------------------------|
A|--------------------------------------------------------------------------|
F|--------------------------------------------------------------------------|
C|-0-----------------0-----------------0-----------------0------------------|
G|-0-----------------0-----------------0-----------------0------------------|
C|-0-----------------0-----------------0-----------------0------------------|

D|--------------------------------------------------------------------------|
A|--------------------------------------------------------------------------|
F|--------------------------------------------------------------------------|
C|--------------------------------------------------------------------------|
G|-0-0---5---7---8---10---8---7---5---5---4---5---7---5h7p5-4---------------|
C|-0-0-----0---0---0----0---0---0---0---0---0---0---0-----------------------|
PM . .
D|--------------------------------------------------------------------------|
A|--------------------------------------------------------------------------|
F|--------------------------------------------------------------------------|
C|--------------------------------------------------------------------------|
G|-0-0---5---7---8---10---8---7---5---5---4---5---7---5h7p5--4--------------|
C|-0-0-----0---0---0----0---0---0---0---0---0---0---0-----------------------|
PM . .
D|--------------------------------------------------------------------------|
A|--------------------------------------------------------------------------|
F|--------------------------------------------------------------------------|
C|-12-12-10-10-3-3-5-5-7--7-7-7-7-7-7-7-7-7-7-7-7-7-------------------------|
G|-12-12-10-10-3-3-5-5-7--7-7-7-7-7-7-7-7-7-7-7-7-7-------------------------|
C|-12-12-10-10-3-3-5-5-7--7-7-7-7-7-7-7-7-7-7-7-7-7-------------------------|
PM                        . . . . .

This time don't let the chords on the 7th fret ring at all. Quickly stop holding down 
fret after the chord is played.
D|--------------------------------------------------------------------------|
A|--------------------------------------------------------------------------|
F|--------------------------------------------------------------------------|
C|-12-12-10-10-3-3-5-5-7-7-7-7-7-7-7-7--------------------------------------|
G|-12-12-10-10-3-3-5-5-7-7-7-7-7-7-7-7--------------------------------------|
C|-12-12-10-10-3-3-5-5-7-7-7-7-7-7-7-7--------------------------------------|

D|--------------------------------------------------------------------------|
A|--------------------------------------------------------------------------|
F|--------------------------------------------------------------------------|
C|--------------------------------------------------------------------------|
G|-0-0---5---7---8---10---8---7---5---5---4---5---7---5h7p5-4---------------|
C|-0-0-----0---0---0----0---0---0---0---0---0---0---0-----------------------|
PM . .
D|--------------------------------------------------------------------------|
A|--------------------------------------------------------------------------|
F|--------------------------------------------------------------------------|
C|--------------------------------------------------------------------------|
G|-0-0---5---7---8---10---8---7---5---5---4---5---7---5h7p5--4--------------|
C|-0-0-----0---0---0----0---0---0---0---0---0---0---0-----------------------|
PM . .

D|--------------------------------------------------------------------------|
A|--------------------------------------------------------------------------|
F|--------------------------------------------------------------------------|
C|-12-12-10-10-3-3-5-5-7--7-7-7-7-7-7-7-7-7-7-7-7-7-------------------------|
G|-12-12-10-10-3-3-5-5-7--7-7-7-7-7-7-7-7-7-7-7-7-7-------------------------|
C|-12-12-10-10-3-3-5-5-7--7-7-7-7-7-7-7-7-7-7-7-7-7-------------------------|
PM                        . . . . .

Again, remember to quickly stop holding down the fret after the chord is played on fret 7.
D|--------------------------------------------------------------------------|
A|--------------------------------------------------------------------------|
F|--------------------------------------------------------------------------|
C|-12-12-10-10-3-3-5-5-7-7-7-7-7-7-7-7--------------------------------------|
G|-12-12-10-10-3-3-5-5-7-7-7-7-7-7-7-7--------------------------------------|
C|-12-12-10-10-3-3-5-5-7-7-7-7-7-7-7-7--------------------------------------|

D|--------------------------------------------------------------------------|
A|--------------------------------------------------------------------------|
F|------7---9---10---12---10---9---7---7---6---7---9---7h9p7-6--------------|
C|--------0---0----0----0----0---0---0---0---0---0---0----------------------|
G|-0-0----------------------------------------------------------------------|
C|-0-0----------------------------------------------------------------------|
PM . .

D|--------------------------------------------------------------------------|
A|--------------------------------------------------------------------------|
F|------7---9---10---12---10---9---7---7---6---7---9---7h9p7-6--------------|
C|--------0---0----0----0----0---0---0---0---0---0---0----------------------|
G|-0-0----------------------------------------------------------------------|
C|-0-0----------------------------------------------------------------------|
PM . .

D|--------------------------------------------------------------------------|
A|--------------------------------------------------------------------------|
F|------7---9---10---12---10---9---7---7---6---7---9---7h9p7-6--------------|
C|--------0---0----0----0----0---0---0---0---0---0---0----------------------|
G|-0-0----------------------------------------------------------------------|
C|-0-0----------------------------------------------------------------------|
PM . .

D|--------------------------------------------------------------------------|
A|--------------------------------------------------------------------------|
F|------7---9---10---12---10---9---7----------------------------------------|
C|--------0---0----0----0----0---0---7-7-7-7-7-7-7-7-\\---------------------|
G|-0-0-------------------------------7-7-7-7-7-7-7-7-\\---------------------|
C|-0-0-------------------------------7-7-7-7-7-7-7-7-\\---------------------|
PM . .                               . . . . . . . .

D|--------------------------------------------------------------------------|
A|--------------------------------------------------------------------------|
F|--------------------------------------------------------------------------|
C|-12-12-10-10-3-3-5-5-7--7-7-7-7-7-7-7-7-7-7-7-7-7-------------------------|
G|-12-12-10-10-3-3-5-5-7--7-7-7-7-7-7-7-7-7-7-7-7-7-------------------------|
C|-12-12-10-10-3-3-5-5-7--7-7-7-7-7-7-7-7-7-7-7-7-7-------------------------|
PM                        . . . . .

Again, remember to quickly stop holding down the fret after the chord is played on fret 7.
D|--------------------------------------------------------------------------|
A|--------------------------------------------------------------------------|
F|--------------------------------------------------------------------------|
C|-12-12-10-10-3-3-5-5-7-7-7-7-7-7-7-7--------------------------------------|
G|-12-12-10-10-3-3-5-5-7-7-7-7-7-7-7-7--------------------------------------|
C|-12-12-10-10-3-3-5-5-7-7-7-7-7-7-7-7--------------------------------------|

D|--------------------------------------------------------------------------|
A|--------------------------------------------------------------------------|
F|--------------------------------------------------------------------------|
C|--------------------------------------------------------------------------|
G|-0-0---5---7---8---10---8---7---5---5---4---5---7---5h7p5-4---------------|
C|-0-0-----0---0---0----0---0---0---0---0---0---0---0-----------------------|
PM . .
D|--------------------------------------------------------------------------|
A|--------------------------------------------------------------------------|
F|--------------------------------------------------------------------------|
C|--------------------------------------------------------------------------|
G|-0-0---5---7---8---10---8---7---5---5---4---5---7---5h7p5--4--------------|
C|-0-0-----0---0---0----0---0---0---0---0---0---0---0-----------------------|

D|--------------------------------------------------------------------------|
A|--------------------------------------------------------------------------|
F|--------------------------------------------------------------------------|
C|-12-12-10-10-3-3-5-5-7--7-7-7-7-7-7-7-7-7-7-7-7-7-------------------------|
G|-12-12-10-10-3-3-5-5-7--7-7-7-7-7-7-7-7-7-7-7-7-7-------------------------|
C|-12-12-10-10-3-3-5-5-7--7-7-7-7-7-7-7-7-7-7-7-7-7-------------------------|
PM                        . . . . .

Again, remember to quickly stop holding down the fret after the chord is played on fret 7.
D|--------------------------------------------------------------------------|
A|--------------------------------------------------------------------------|
F|--------------------------------------------------------------------------|
C|-12-12-10-10-3-3-5-5-7-7-7-7-7-7-7-7--------------------------------------|
G|-12-12-10-10-3-3-5-5-7-7-7-7-7-7-7-7--------------------------------------|
C|-12-12-10-10-3-3-5-5-7-7-7-7-7-7-7-7--------------------------------------|

D|--------------------------------------------------------------------------|
A|--------------------------------------------------------------------------|
F|-7--99--1010--9--9999999966666666-----------------------------------------|
C|-x--xx--x-x---x--xxxxxxxxxxxxxxxx-----------------------------------------|
G|-5--77--8-8---7--7777777744444444-----------------------------------------|
C|--------------------------------------------------------------------------|

D|--------------------------------------------------------------------------|
A|--------------------------------------------------------------------------|
F|-7--99--1010--9--9999999966666666-----------------------------------------|
C|-x--xx--x-x---x--xxxxxxxxxxxxxxxx-----------------------------------------|
G|-5--77--8-8---7--7777777744444444-----------------------------------------|
C|--------------------------------------------------------------------------|

D|--------------------------------------------------------------------------|
A|--------------------------------------------------------------------------|
F|--------------------------------------------------------------------------|
C|--------------------------------------------------------------------------|
G|-5t--7t--8t--10t--8t--7t--5t--4t--5t--7t--5h7p5--4t-----------------------|
C|--------------------------------------------------------------------------|

D|--------------------------------------------------------------------------|
A|--------------------------------------------------------------------------|
F|--------------------------------------------------------------------------|
C|--------------------------------------------------------------------------|
G|-5t--7t--8t--10t--8t--7t--5t--4t--5t--7t--5h7p5--4t-----------------------|
C|--------------------------------------------------------------------------|

D|--------------------------------------------------------------------------|
A|--------------------------------------------------------------------------|
F|--------------------------------------------------------------------------|
C|--------------------------------------------------------------------------|
G|-5t--7t--8t--10t--8t--7t--5t--4t--5t--7t--5h7p5--4t-----------------------|
C|--------------------------------------------------------------------------|

D|--------------------------------------------------------------------------|
A|--------------------------------------------------------------------------|
F|--------------------------------------------------------------------------|
C|--------------------------------------------------------------------------|
G|-5t--7t--8t--10t--8t--7t--5t--4t--5t--7t--5h7p5--4t-----------------------|
C|--------------------------------------------------------------------------|

D|--------------------------------------------------------------------------|
A|--------------------------------------------------------------------------|
F|--------------------------------------------------------------------------|
C|--------------------------------------------------------------------------|
G|-5t--7t--8t--10t--8t--7t--5t--4t--5t--7t--5h7p5--4t-----------------------|
C|--------------------------------------------------------------------------|

D|--------------------------------------------------------------------------|
A|--------------------------------------------------------------------------|
F|--------------------------------------------------------------------------|
C|--------------------------------------------------------------------------|
G|-5t--7t--8t--10t--8t--7t--5t--4t--5t--7t--5h7p5--4t-----------------------|
C|--------------------------------------------------------------------------|

D|--------------------------------------------------------------------------|
A|--------------------------------------------------------------------------|
F|--------------------------------------------------------------------------|
C|--------------------------------------------------------------------------|
G|-5t--7t--8t--10t--8t--7t--5t--4t--5t--7t--5h7p5--4t-----------------------|
C|--------------------------------------------------------------------------|

D|--------------------------------------------------------------------------|
A|--------------------------------------------------------------------------|
F|--------------------------------------------------------------------------|
C|--------------------------------------------------------------------------|
G|-5t--7t--8t--10t--8t--7t--5t--4t--5t--7t--5h7p5--4t-----------------------|
C|--------------------------------------------------------------------------|

D|--------------------------------------------------------------------------|
A|--------------------------------------------------------------------------|
F|--------------------------------------------------------------------------|
C|-0-0000-0000-00000000-----------------------------------------------------|
G|-0-0000-0000-00000000-----------------------------------------------------|
C|-0-0000-0000-00000000-----------------------------------------------------|
PM . .... .... ........

D|--------------------------------------------------------------------------|
A|--------------------------------------------------------------------------|
F|--------------------------------------------------------------------------|
C|-0-0000-0000-00000000-----------------------------------------------------|
G|-0-0000-0000-00000000-----------------------------------------------------|
C|-0-0000-0000-00000000-----------------------------------------------------|
PM . .... .... ........

D|--------------------------------------------------------------------------|
A|--------------------------------------------------------------------------|
F|--------------------------------------------------------------------------|
C|-0-0000-0000-00000000-----------------------------------------------------|
G|-0-0000-0000-00000000-----------------------------------------------------|
C|-0-0000-0000-00000000-----------------------------------------------------|
PM . .... .... ........

D|--------------------------------------------------------------------------|
A|--------------------------------------------------------------------------|
F|--------------------------------------------------------------------------|
C|-0-0000-0000-00000000-----------------------------------------------------|
G|-0-0000-0000-00000000-----------------------------------------------------|
C|-0-0000-0000-00000000-----------------------------------------------------|
PM . .... .... ........


| t  tremolo picking
| /  slide up
| \  slide down
| h  hammer-on
| p  pull-off
| ~  vibrato
| +  harmonic
| x  Mute note
=============================================================================
Tap to rate this tab
# A B C D E F G H I J K L M N O P Q R S T U V W X Y Z