Song name
# A B C D E F G H I J K L M N O P Q R S T U V W X Y Z

Agony Scene - We Bury Our Dead At Dawn tab

Song: We Bury Our Dead At Dawn
Artist: The Agony Scene
Album: The Agony Scene

^ = Natural Harmonic
* = Pinch Harmonic

   Guitars I, II
D||-----------------------------------------|
A||-----------------------------------------|
F||-----------------------------------------|
C||-------7---------7---------7---------7---|
G||-------5^--------5^--------5^--------5^--|
C||-0-0-0-----0-0-0-----0-0-0-----0-0-0-----|x2
PM|-x-x-x-----x-x-x-----x-x-x-----x-x-x-----|

   Guitar I
D||---------------------|
A||---------------------|
F||---------------------|
C||-0~------------------|
G||-0~---------------7\-|
C||-0~---------------7\-|
 ||
 ||Guitar II
D||---------------------|
A||---------------------|
F||---------------------|
C||-0~------------------|
G||-0~------------------|
C||-0~------------------|

   Guitar I
D||-----------------------------------------------------------------------------------|
A||-----------------------------------------------------------------------------------|
F||-----------------------------------------------------------------------------------|
C||-----------------------------------------------------------------------------------|
G||-0---1p0-5^-1p0-5^-1p0-0h1h3-0-1p0-5^-1p0-5^-1p0-0h1h3-0-1p0-5^-1p0-5^-1p0-0h1h3-0-|
C||-0-0-1p0----1p0----1p0-0h1h3-0-1p0----1p0----1p0-0h1h3-0-1p0----1p0----1p0-0h1h3-0-|
PM|---x-------------------------------------------------------------------------------|
 ||
 ||Guitar II
D||-----------------------------------------------------------------------------------|
A||-----------------------------------------------------------------------------------|
F||-----------------------------------------------------------------------------------|
C||-----------------------------------------------------------------------------------|
G||-----------------------------0~----------------------1-0~----------------------1-0-|
C||-----------------------------0~----------------------1-0~----------------------1-0-|
PM|-----------------------------0~----------------------1-0~----------------------1-0-|

   Guitar I
D||-------------------------|
A||-------------------------|
F||-------------------------|
C||-------------------------|
G||---1p0-44444-0-0-0-44444-|
C||-0-1p0-------0-0-0-------|
PM|-x-----------x-x-x-------|
 ||
 ||Guitar II
D||--------------------------------|
A||--------------------------------|
F||--------------------------------|
C||--------------------------------|
G||-0-0-0-0-0-0-0-0-0-0-0-0--------|
C||-0-0-0-0-0-0-0-0-0-0-0-0-12\----|
PM|-x-x-x-x-x-x-x-x-x-x-x-x--------|

   Guitars I, II
D||-----------------------------------------------------------------------------------|
A||-----------------------------------------------------------------------------------|
F||-----------------------------------------------------------------------------------|
C||-----------------------------------------------------------------------------------|
G||-0---1p0-5^-1p0-5^-1p0-0h1h3-0-1p0-5^-1p0-5^-1p0-0h1h3-0-1p0-5^-1p0-5^-1p0-0h1h3-0-|
C||-0-0-1p0----1p0----1p0-0h1h3-0-1p0----1p0----1p0-0h1h3-0-1p0----1p0----1p0-0h1h3-0-|
PM|---x-------------------------------------------------------------------------------|

   Guitars I, II
D||-------------------------|
A||-------------------------|
F||-------------------------|
C||-------------------------|
G||---1p0-44444-0-0-0-44444-|
C||-0-1p0-------0-0-0-------|
PM|-x-----------x-x-x-------|

   Guitars I, II
D||---------------------------------------------------------------------------------|
A||---------------------------------------------------------------------------------|
F||---------------------------------------------------------------------------------|
C||---------------------------------------------------------------------------------|
G||-0-1-0-4-0-1-0-4-1-0-0-1-4-0-1-0-4-0-1-0-4-1-0-0-1-4-0-1-0-4-0-1-0-4-1-0-0-1-4-0-|
C||-0-1-0-4-0-1-0-4-1-0-0-1-4-0-1-0-4-0-1-0-4-1-0-0-1-4-0-1-0-4-0-1-0-4-1-0-0-1-4-0-|
PM|---x-x-x-x-x-x-x-x-x-x-x-x---x-x-x-x-x-x-x-x-x-x-x-x---x-x-x-x-x-x-x-x-x-x-x-x---|

   Guitars I, II
D||-------------------------|
A||-------------------------|
F||-------------------------|
C||-------------------------|
G||---1p0-44444-0-0-0-44444-|
C||-0-1p0-------0-0-0-------|
PM|-x-----------x-x-x-------|

   Guitars I, II
D||-----------------------------------------------------------------------|
A||-----------------------------------------------------------------------|
F||-----------------------------------------------------------------------|
C||-----------------------------------------------------------------------|
G||-----5---7---7h8------5---7---7h10--10---8---7---8---10---8---7h8p7p0--|
C||-0-0---0---0------0-0---0---0----------8---8---8---8----8---8----------|
PM|-x-x---x---x------x-x---x---x----------x---x---x---x----x---x----------|

   Guitar I
D||-----------------------------------------------------------------------|
A||-----------------------------------------------------------------------|
F||-----------------------------------------------------------------------|
C||-----------------------------------------------------------------------|
G||-----5---7---7h8------5---7---7h10--10---8---7---8---10---8---7h8p7p0--|
C||-0-0---0---0------0-0---0---0----------8---8---8---8----8---8----------|
PM|-x-x---x---x------x-x---x---x----------x---x---x---x----x---x----------|
 ||
 ||Guitar II
D||-----------------------------------------------------------------------|
A||-----------------------------------------------------------------------|
F||-----------------------------------------------------------------------|
C||-----------------------------------------------------------------------|
G||-----5---7---7h8------5---7---7h10--10---8---7---8---------------------|
C||-0-0---0---0------0-0---0---0----------8---8---8---8--X\\\\\\\\\\\\\\--|
PM|-x-x---x---x------x-x---x---x----------x---x---x---x-------------------|

   Guitar I
D||-----------------------------------------------------------------------|
A||-----------------------------------------------------------------------|
F||-----------------------------------------------------------------------|
C||-----------------------------------------------------------------------|
G||-----5---7---7h8------5---7---7h10--10---8---7---8---10---8---7h8p7p0--|
C||-0-0---0---0------0-0---0---0----------8---8---8---8----8---8----------|x2
PM|-x-x---x---x------x-x---x---x----------x---x---x---x----x---x----------|
 ||
 ||Guitar II
D||-----------------------------------------------------------------------|
A||-----------------------------------------------------------------------|
F||------------------7~---------------------------------------------------|
C||-0~---------------7~-----------------8~--------------10~---------------|
G||-0~---------------5~-----------------8~---------------8~---------------|
C||-0~----------------------------------8~---------------8~---------------|x2

   Guitar I
D||-----------------------------------------------------------------------|
A||-----------------------------------------------------------------------|
F||-----------------------------------------------------------------------|
C||-0~--------------11~-----------------2~---------------0~---------------|
G||-0~--------------11~-----------------2~---------------0~------------0--|
C||-0~--------------11~-----------------2~---------------0~------------0--|
PM|--------------------------------------------------------------------x--| 
 ||
 ||Guitar II
D||-----------------------------------------------------------------------|
A||-----------------------------------------------------------------------|
F||-----------------------------------------------------------------------|
C||-0~--------------------------------------------------------------------|
G||-0~-----------------------------------------------------------------0--|
C||-0~-----------------------------------------------------------------0--|
PM|--------------------------------------------------------------------x--|

   Guitar I
D||----------------------------------------------------------------------------------|
A||----------------------------------------------------------------------------------|
F||----------------------------------------------------------------------------------|
C||----------------------------------------------------------------------------------|
G||-5h8p05h8p05h8p05h8p05h8p05h8p05h8p05h8p04h7p04h7p04h7p04h7p04h7p04h7p04h7p04h7p0-|
C||----------------------------------------------------------------------------------|
 ||
 ||Guitar II
D||-------------------------------------------------|
A||-------------------------------------------------|
F||-------------------------------------------------|
C||-------------------------------------------------|
G||-00000000000000011111111111111111111111111111111-|
C||-00000000000000011111111111111111111111111111111-|
PM|-xxxxxxxxxxxxxxx-x-x-x-x-x-x-x-x-x-x-x-x-x-x-x-x-|

   Guitar I
D||------------------------------------------------------------------------------------------|
A||------------------------------------------------------------------------------------------|
F||------------------------------------------------------------------------------------------|
C||------------------------------------------------------------------------------------------|
G||-7h10p07h10p07h10p07h10p07h10p07h10p07h10p07h10p05h8p05h8p05h8p05h8p05h8p05h8p05h8p05h8p0-|
C||------------------------------------------------------------------------------------------|
 ||
 ||Guitar II
D||---------------------------------|
A||---------------------------------|
F||---------------------------------|
C||---------------------------------|
G||-2222222222222220000000000000000-|
C||-2222222222222220000000000000000-|
PM|-xxxxxxxxxxxxxxxxxxxxxxxxxxxxxxx-|

   Guitar I
D||----------------------------------------------------------------------------------|
A||----------------------------------------------------------------------------------|
F||----------------------------------------------------------------------------------|
C||----------------------------------------------------------------------------------|
G||-5h8p05h8p05h8p05h8p05h8p05h8p05h8p05h8p04h7p04h7p04h7p04h7p04h7p04h7p04h7p04h7p0-|
C||----------------------------------------------------------------------------------|
 ||
 ||Guitar II
D||-------------------------------------------------|
A||-------------------------------------------------|
F||-------------------------------------------------|
C||-------------------------------------------------|
G||-00000000000000011111111111111111111111111111111-|
C||-00000000000000011111111111111111111111111111111-|
PM|-xxxxxxxxxxxxxxx-x-x-x-x-x-x-x-x-x-x-x-x-x-x-x-x-|

   Guitar I
D||------------------------------------------------------------------------------------------|
A||------------------------------------------------------------------------------------------|
F||------------------------------------------------------------------------------------------|
C||------------------------------------------------------------------------------------------|
G||-7h10p07h10p07h10p07h10p07h10p07h10p07h10p07h10p05h8p05h8p05h8p05h8p05h8p05h8p05h8p05h8p0-|
C||------------------------------------------------------------------------------------------|
 ||
 ||Guitar II
D||---------------------------------|
A||---------------------------------|
F||---------------------------------|
C||---------------------------------|
G||-2222222222222220000000000000000-|
C||-2222222222222220000000000000000-|
PM|-xxxxxxxxxxxxxxxxxxxxxxxxxxxxxxx-|

   Guitar I
D||------------------------------------------------------------------|
A||------------------------------------------------------------------|
F||------------------------------------------------------------------|
C||------------------------------------------------------------------|
G||-5h805h805h805h805h805h805h805h804h704h704h704h704h704h704h704h70-|
C||----x---x---x---x---x---x---x---x---x---x---x---x---x---x---x---x-|
 ||
 ||Guitar II
D||------------------------------------------------------------------|
A||------------------------------------------------------------------|
F||------------------------------------------------------------------|
C||--------------------------------11~-------------11~---------------|
G||-0---------------0--------------11~-------------11~---------------|
C||-0---------------0--------------11~-------------11~---------------|
PM|-x---------------x------------------------------------------------|

   Guitar I
D||-----------------------------------------------------------------------------|
A||-----------------------------------------------------------------------------|
F||-----------------------------------------------------------------------------|
C||-----------------------------------------------------------------------------|
G||-7h1007h1007h1007h1007h1007h1007h1007h1005h805h805h805h805h805h805h805h80-5*-|
C||-----x----x----x----x----x----x----x----x---x---x---x---x---x---x---x---x----|
 ||
 ||Guitar II
D||-----------------------------------------------------------------------------|
A||-----------------------------------------------------------------------------|
F||-----------------------------------------------------------------------------|
C||-2~------------------2~------------------0-----------------------------------|
G||-2~------------------2~------------------0~--------------X\\\\\\\\\\\\\\\\\\-|
C||-2~------------------2~------------------0~--------------X\\\\\\\\\\\\\\\\\\-|

   Guitars I, II
D||-----------------------------------------------------------------------------------------|
A||-----------------------------------------------------------------------------------------|
F||-----------------------------------------------------------------------------------------|
C||---------------------------------11------------11------------11------------11------------|
G||-0-00000-0-00000-0-00000-0-00000-11-1111111111-11-1111111111-11-1111111111-11-1111111111-|
C||-0-00000-0-00000-0-00000-0-00000-11-1111111111-11-1111111111-11-1111111111-11-1111111111-|
PM|-x-xxxxx-x-xxxxx-x-xxxxx-x-xxxxx--x--x-x-x-x-x--x--x-x-x-x-x--x--x-x-x-x-x--x--x-x-x-x-x-|

   Guitars I, II
D||------------------------------------------------------------------------------|
A||------------------------------------------------------------------------------|
F||------------------------------------------------------------------------------|
C||-2-------2-------2-------2----------------------------------------------------|
G||-2-22222-2-22222-2-22222-2-22222-0--0-------0--0-------0--0-------------------|
C||-2-22222-2-22222-2-22222-2-22222-0--0-0h3h6-0--0-0h3h6-0--0-0h3h6-0h3h6-0h2h3-|
PM|---xxxxx---xxxxx---xxxxx---xxxxx-x--x-------x--x-------x--x-------------------|

   Guitars I, II
D||-----------------------------------------------------------------------------------------|
A||-----------------------------------------------------------------------------------------|
F||-----------------------------------------------------------------------------------------|
C||---------------------------------11------------11------------11------------11------------|
G||-0-00000-0-00000-0-00000-0-00000-11-1111111111-11-1111111111-11-1111111111-11-1111111111-|
C||-0-00000-0-00000-0-00000-0-00000-11-1111111111-11-1111111111-11-1111111111-11-1111111111-|
PM|-x-xxxxx-x-xxxxx-x-xxxxx-x-xxxxx--x--x-x-x-x-x--x--x-x-x-x-x--x--x-x-x-x-x--x--x-x-x-x-x-|

   Guitars I, II
D||------------------------------------------------------------------------------|
A||------------------------------------------------------------------------------|
F||------------------------------------------------------------------------------|
C||-2-------2-------2-------2----------------------------------------------------|
G||-2-22222-2-22222-2-22222-2-22222-0--0-------0--0-------0--0-------------------|
C||-2-22222-2-22222-2-22222-2-22222-0--0-0h3h6-0--0-0h3h6-0--0-0h3h6-0h3h6-0h2h3-|
PM|---xxxxx---xxxxx---xxxxx---xxxxx-x--x-------x--x-------x--x-------------------|

   Guitar I
D||----------------------------------------------------------|
A||----------------------------------------------------------|
F||----------------------------------------------------------|
C||-0~-----------1~-----------0~-----------1~----------------|
G||-0~---------0-1~-----0-1-3-0~---------0-1~----------------|
C||-0~---------0-1~-----0-1-3-0~---------0-1~------X\\\\\\\\-|
PM|------------x--------x-x-x------------x-------------------|
 ||
 ||Guitar II
D||----------------------------------------------------------|
A||----------------------------------------------------------|
F||----------------------------------------------------------|
C||-0~-----------1~-----------0~-----------1~----------------|
G||-0~---------0-1~-----0-1-3-0~---------0-1~----------------|
C||-0~---------0-1~-----0-1-3-0~---------0-1~----------X\\\\-|
PM|------------x--------x-x-x------------x-------------------|

   Guitars I, II
D||-----------------------------------------------------------------------|
A||-----------------------------------------------------------------------|
F||-----------------------------------------------------------------------|
C||-----------------------------------------------------------------------|
G||-----5---7---7h8------5---7---7h10--10---8---7---8---10---8---7h8p7p0--|
C||-0-0---0---0------0-0---0---0----------8---8---8---8----8---8----------|
PM|-x-x---x---x------x-x---x---x----------x---x---x---x----x---x----------|

   Guitar I
D||-----------------------------------------------------------------------|
A||-----------------------------------------------------------------------|
F||-----------------------------------------------------------------------|
C||-----------------------------------------------------------------------|
G||-----5---7---7h8------5---7---7h10--10---8---7---8---10---8---7h8p7p0--|
C||-0-0---0---0------0-0---0---0----------8---8---8---8----8---8----------|
PM|-x-x---x---x------x-x---x---x----------x---x---x---x----x---x----------|
 ||
 ||Guitar II
D||-----------------------------------------------------------------------|
A||-----------------------------------------------------------------------|
F||-----------------------------------------------------------------------|
C||-----------------------------------------------------------------------|
G||-----5---7---7h8------5---7---7h10--10---8---7---8---------------------|
C||-0-0---0---0------0-0---0---0----------8---8---8---8--X\\\\\\\\\\\\\\--|
PM|-x-x---x---x------x-x---x---x----------x---x---x---x-------------------|

   Guitar I
D||-----------------------------------------------------------------------|
A||-----------------------------------------------------------------------|
F||-----------------------------------------------------------------------|
C||-----------------------------------------------------------------------|
G||-----5---7---7h8------5---7---7h10--10---8---7---8---10---8---7h8p7p0--|
C||-0-0---0---0------0-0---0---0----------8---8---8---8----8---8----------|x2
PM|-x-x---x---x------x-x---x---x----------x---x---x---x----x---x----------|
 ||
 ||Guitar II
D||-----------------------------------------------------------------------|
A||-----------------------------------------------------------------------|
F||-----------------------------------------------------------------------|
C||-----3---5---5h7------3---5---5h7/-/10---8---7---8---10---8---7h8p7p0--|
G||-----------------------------------------------------------------------|
C||-0-0---0---0------0-0---0---0----------8---8---8---8----8---8----------|x2
PM|-x-x---x---x------x-x---x---x----------x---x---x---x----x---x----------|

   Guitars I, II
D||-------------------------------------------------------------------------------------------------------|
A||-------------------------------------------------------------------------------------------------------|
F||-------------------------------------------------------------------------------------------------------|
C||-------0~----------------------------------------------------------------------------------------------|
G||-0-1-3-0~----------------------------------------------------------------------------------------------|
C||-0-1-3-0~----------------------------------------------------------------------------------------------|
PM|-x-x-x-------------------------------------------------------------------------------------------------|
Tap to rate this tab
# A B C D E F G H I J K L M N O P Q R S T U V W X Y Z