Song name
# A B C D E F G H I J K L M N O P Q R S T U V W X Y Z

Agraceful - The Great I Am tab

-------------------------------------------------------------------------------
			     The Great I Am - Agraceful
-------------------------------------------------------------------------------
Tabbed by: me
Email: N_hopwood@hotmail.com

Tuning: Drop D

Verse:
e|-------|
B|-10~---|
G|-x~----|
D|-8~----|
A|-8~----|
D|-8~----|4x

Pre-Chorus:
e|---------------------6-6-6-6-6-6-6-6----|
B|-8-8------6-6---------------------------|
G|--8-8(2x)--8-8(2x)----8-8-8-8-8-8-8-----|
D|----------------------------------------|
A|----------------------------------------|
D|----------------------------------------|2x

Repeat Verse

Chorus:
e|-15-15-15-15-15-15-15-15/13-13-13-13-13-13-13/8-8-8-8-8-8-8-8\11-11-11-11/-------|
B|---------------------------------------------------------------------------------|
G|---------------------------------------------------------------------------------|
D|---------------------------------------------------------------------------------|
A|---------------------------------------------------------------------------------|
D|---------------------------------------------------------------------------------|

e|-10-10-10-10/3-3-3-3-3-3-3-3(2x)\8-8-8-8-8-8-8-8\10-10-10-10\11-11-11-11---15~~--|
B|---------------------------------------------------------------------------------|
G|---------------------------------------------------------------------------------|
D|---------------------------------------------------------------------------------|
A|---------------------------------------------------------------------------------|
D|---------------------------------------------------------------------------------|

Repeat Verse

Repeat Pre-chorus 2x

Repeat Chorus 2x

THEE END

Find agraceful at www.myspace.com/agraceful  

| /  slide up
| \  slide down
| h  hammer-on
| p  pull-off
| ~  vibrato
| +  harmonic
| x  Mute note
===============================================================================
Tap to rate this tab
 
# A B C D E F G H I J K L M N O P Q R S T U V W X Y Z