Song name
# A B C D E F G H I J K L M N O P Q R S T U V W X Y Z

Agraceful - A Prophecy In Reverie tab

Agraceful Ė A prophecy in Reverie

This tab is in Drop C, from the awesome band Agraceful.

Guitar 1
D||---------------------------------------------------------------|
A||---------------------------------------------------------------|
F||-14--14--14-14----14--14--14-14----7--7--7-7----14--14--14-14--| x3
C||---------------------------------------------------------------|
G||-12--12--12-12----12--12--12-12----5--5--5-5----12--12--12-12--|
C||---------------------------------------------------------------|


Verse (repeat twice)
D||-------------------------------------|
A||--3/6h8------------------------------|
F||---------5h7ó-0h3h5ó-5\3--5/7\5------|
C||-------------------------------------|
G||-------------------------------------|
C||-------------------------------------|

D||-------------------------------------|
A||--3/6h8------------------------------|
F||---------5h7--0h3h5--5\3--3/5--------|
C||-------------------------------------|
G||-------------------------------------|
C||-------------------------------------|


Interlude
D||-------------|
A||-------------|
F||-2----2------|
C||-0----0------|
G||-0----0------|
C||-0----0------|


Chorus (repeat 4 times)
D||--------------------------------------|
A||--------------------------------------|
F||-14-14-14-14-14-14--12-12/17-17-17-17-|
C||--------------------------------------|
G||-12-12-12-12-12-12--10-10/15-15-15-15-|
C||--------------------------------------|

D||--------------------------------------|
A||--------------------------------------|
F||-14-14-14-14-14-14--12-12-12-12/10----|
C||--------------------------------------|
G||-12-12-12-12-12-12--10-10-10-10/8-----|
C||--------------------------------------|


Interlude after chorus - you donít have to follow the hammers and pull-offs if you donít 
too, its just the way I play it.

D||--------------------------------------------|
A||--------------------------------------------|
F||--------------------------------------------| x3
C||---0-7-8-0-5h7--0-5h3-0-3p0-2/3-------------|
G||--------------------------------------------|
C||--------------------------------------------|


Next bit
D||---------------------------------------------------|
A||-----6---------6----6------6--------6-------6---6--|
F||-----9---------9----9------9--------9-------9---9--|
C||-000----000--0----0----000----000------0-0-----0---|
G||-000----000--0----0----000----000------0-0-----0---|
C||-000----000--0----0----000----000------0-0-----0---|
    ...    ...  .    .    ...    ...      . .	    .

D||--------------------------------------------|
A||-----6---------6----6------6----------------|
F||-----9---------9----9------9----------------|
C||-000-----000--0----0----000----000-0--------|
G||-000-----000--0----0----000----000-0--------|
C||-000-----000--0----0----000----000-0--------|
    ...     ...  .    .    ...    ...

D||------------------------|
A||------------------------|
F||-14/10--14/10-----------|
C||------------------0-----| x4  (fourth time, donít play 0ís
G||-12/8---12/8------0-----|	    straight into chorus after)
C||------------------0-----|


Chorus (repeat 4 times)
D||--------------------------------------|
A||--------------------------------------|
F||-14-14-14-14-14-14--12-12/17-17-17-17-|
C||--------------------------------------|
G||-12-12-12-12-12-12--10-10/15-15-15-15-|
C||--------------------------------------|

D||--------------------------------------|
A||--------------------------------------|
F||-14-14-14-14-14-14--12-12-12-12/10----|
C||--------------------------------------|
G||-12-12-12-12-12-12--10-10-10-10/8-----|
C||--------------------------------------|


Verse (repeat four times) Ė slightly different donít slide back down to 5 in first part
D||-------------------------------------|
A||--3/6h8------------------------------|
F||---------5h7ó-0h3h5ó-5\3--5/7--------|
C||-------------------------------------|
G||-------------------------------------|
C||-------------------------------------|

D||-------------------------------------|
A||--3/6h8------------------------------|
F||---------5h7--0h3h5--5\3--3/5--------|
C||-------------------------------------|
G||-------------------------------------|
C||-------------------------------------|


Bit before the last chorus
D||----------------------------------------------|
A||----------------------------------------------|
F||-14-14-14-14-14-14-14\12-12-12-12/14-14-14-14-|
C||----------------------------------------------| x4
G||-12-12-12-12-12-12-12\10-10-10-10/12-12-12-12-|
C||----------------------------------------------|

Chorus (repeat 4 times)
D||--------------------------------------|
A||--------------------------------------|
F||-14-14-14-14-14-14--12-12/17-17-17-17-|
C||--------------------------------------|
G||-12-12-12-12-12-12--10-10/15-15-15-15-|
C||--------------------------------------|

D||--------------------------------------|
A||--------------------------------------|
F||-14-14-14-14-14-14--12-12-12-12/10----|
C||--------------------------------------|
G||-12-12-12-12-12-12--10-10-10-10/8-----|
C||--------------------------------------|


Outro
D||------------------------------------------|
A||------------------------------------------|
F||------------------------------------------|
C||-000-000--000-000----000-000--000-000-----|
G||-000-000--000-000----000-000--000-000-----|
C||-000-000--000-000----000-000--000-000-----|
    ... ...  ... ...    ... ...  ... ...

D||-------------------------------------------|
A||-------------------------------------------|
F||-------------------------------------------|
C||-000-000--000-000----000-000--000-000---0--|
G||-000-000--000-000----000-000--000-000---0--|
C||-000-000--000-000----000-000--000-000---0--|
    ..  ..   ..  ..     ..  ..   ..  ..    .
Tap to rate this tab
 
# A B C D E F G H I J K L M N O P Q R S T U V W X Y Z