Song name
# A B C D E F G H I J K L M N O P Q R S T U V W X Y Z

Agraceful - The Great I Am drum

Agraceful - The Great I Am
Tabber: by sie42 (sstrehler42@gmail.com)

BPM: 130

C1 - Crash 1
C2 - Crash 2
R  - Ride                 
H  - HiHat             o/x/f Open/Closed/Foot Closed
S  - Snare             0/o/F - Accented/Regular/Flam
T1 - High Tom 
T2 - Low Tom      
B  - Bass Drum

Intro 0:00    
  |1 + 2 + 3 + 4 + |1 + 2 + 3 + 4 + |1 + 2 + 3 + 4 + |1 + 2 + 3 + 4 + |
C1|X---------------|----------------|----------------|----------------|
H |-ooo0ooo-ooo0ooo|0ooo0ooo-ooo0ooo|0ooo0ooo-ooo0ooo|0ooo0ooo-oo--ooo|
S |--------0-------|--------0-------|--------0-------|--------0--o0---|
B |0---------------|0--0--0---------|0---------------|0--0--0---------|

  |1 + 2 + 3 + 4 + |1 + 2 + 3 + 4 + |1 + 2 + 3 + 4 + |1 + 2 + 3 + 4 + |
C2|X---------------|----------------|----------------|----------------|
H |-ooo0ooo-ooo0ooo|0ooo0ooo-ooo0ooo|0ooo0ooo-ooo0ooo|0ooo0ooo-ooo-ooo|
S |--------0-------|--------0-------|--------0-------|--------0---0---|
B |0---------------|0--0--0---------|0---------------|0--0--0---------|

Verse 1 - 0:15
  |1 + 2 + 3 + 4 + |1 + 2 + 3 + 4 + |1 + 2 + 3 + 4 + |1 + 2 + 3 + 4 + |
C1|X---------------|----------------|----------------|----------------|
H |-ooo0ooo-ooo0ooo|0ooo0ooo-ooo0ooo|0ooo0ooo-ooo0ooo|0ooo0ooo--oo-ooo|
S |--------0-------|--------0-------|--------0-------|--------00--0---|
B |0---------------|0--0--0---------|0---------------|0--0--0---------|

  |1 + 2 + 3 + 4 + |1 + 2 + 3 + 4 + |1 + 2 + 3 + 4 + |1 + 2 + 3 + 4 + |
C1|X---------------|----------------|----------------|----------------|
H |-ooo0ooo-ooo0ooo|0ooo0ooo-ooo0ooo|0ooo0ooo-ooo0ooo|----------------|
S |--------0-------|--------0-------|--------0-------|-oo00o-oo0oo-o00|
T1|----------------|----------------|----------------|0-----0-----0---|
B |0---------------|0--0--0---------|0---------------|----------------|

  |1 + 2 + 3 + 4 + |1 + 2 + 3 + 4 + |1 + 2 + 3 + 4 + |1 + 2 + 3 + 4 + |
C1|X---------------|----------------|----------------|----------------|
H |-ooo0ooo-ooo0ooo|0ooo0ooo-ooo0ooo|0ooo0ooo-ooo0ooo|0ooo0ooo--oo-ooo|
S |--------0-------|--------0-------|--------0-------|--------00--0---|
B |0---------------|0--0--0---------|0---------------|0--0--0---------|
 
  |1 + 2 + 3 + 4 + |1 + 2 + 3 + 4 + |1 + 2 + 3 + 4 + |1 + 2 + 3 + 4 + |
C1|X---------------|----------------|----------------|----------------|
H |-ooo0ooo-ooo0ooo|0ooo0ooo-ooo0ooo|0---0---0---0---|----------------|
S |--------0-------|--------0-------|----------------|F---0-------F---|
T1|----------------|----------------|----------------|------0---------|
T2|----------------|----------------|----------------|--------0-------|
B |0---------------|0--0--0---------|0-0-0-0-0-0-0-0-|0-0-------0---0-|

Interlude 1 - 0:44
  |1 + 2 + 3 + 4 + |1 + 2 + 3 + 4 + |1 + 2 + 3 + 4 + |1 + 2 + 3 + 4 + |
C1|X---x---x---x---|x---x---x---x---|X---x---x---x---|x---x---x---x---|
T1|----------------|----------------|----------------|--00------------|
T2|----------------|----------------|----------------|----------00--00|
B |0---------------|----------------|0---------------|------------0---|
 
  |1 + 2 + 3 + 4 + |1 + 2 + 3 + 4 + |1 + 2 + 3 + 4 + |1 + 2 + 3 + 4 + |
C1|X---x---x---x---|x---x---x---x---|X---x---x---x---|X---------------|
S |----------------|----------------|0---------------|0--0--------F---|
T1|----------------|----------------|----------------|------0---------|
T1|----------------|----------------|----------------|--------0-------|
B |0---------------|--------------0-|--------------0-|----------0---0-|

Verse 2 - 0:59
  |1 + 2 + 3 + 4 + |1 + 2 + 3 + 4 + |1 + 2 + 3 + 4 + |1 + 2 + 3 + 4 + |
C1|X---------------|----------------|----------------|----------------|
H |-ooo0ooo-ooo0ooo|0ooo0ooo-ooo0ooo|0ooo0ooo-ooo0ooo|0ooo0ooo--oo-ooo|
S |--------0-------|--------0-------|--------0-------|--------00--0---|
B |0---------------|0--0--0---------|0---------------|0--0--0---------|

  |1 + 2 + 3 + 4 + |1 + 2 + 3 + 4 + |1 + 2 + 3 + 4 + |1 + 2 + 3 + 4 + |
C1|X---------------|----------------|----------------|----------------|
H |-ooo0ooo-ooo0ooo|0ooo0ooo-ooo0ooo|0ooo0ooo-ooo0ooo|0ooo0ooo-ooo-ooo|
S |--------0-------|--------0-------|--------0-------|--------0---0---|
B |0---------------|0--0--0---------|0---------------|0--0--0---------|

  |1 + 2 + 3 + 4 + |1 + 2 + 3 + 4 + |1 + 2 + 3 + 4 + |1 + 2 + 3 + 4 + |
C1|X---------------|----------------|----------------|----------------|
H |-ooo0ooo-ooo0ooo|0ooo0ooo-ooo0ooo|0ooo0ooo-ooo0ooo|0ooo0ooo--oo-ooo|
S |--------0-------|--------0-------|--------0-------|--------00--0---|
B |0---------------|0--0--0---------|0---------------|0--0--0---------|

  |1 + 2 + 3 + 4 + |1 + 2 + 3 + 4 + |1 + 2 + 3 + 4 + |1 + 2 + 3 + 4 + |
C1|X---------------|----------------|----------------|----------------|
H |-ooo0ooo-ooo0ooo|0ooo0ooo-ooo0ooo|----------------|----------------|
S |--------0-------|--------0-------|----------------|------------F---|
T2|----------------|----------------|--0---0-0-0-0-0-|0-0-0-0-0-------|
B |0---------------|0--0--0---------|0---------------|--------0-0---0-|

Chorus - 1:29
  |1 + 2 + 3 + 4 + |1 + 2 + 3 + 4 + |1 + 2 + 3 + 4 + |1 + 2 + 3 + 4 + |
C1|X---X---X---X---|X---X---X---X---|X---X---X---X---|X---X---X-------|
C2|X---------------|----------------|X---------------|----------------|
S |----------------|0---------------|----------------|0--0------------|
T2|----------------|----------------|----------------|----------000---|
B |0-0-0-0-0-0-0-0-|0-0-0-0-0-0-0-0-|0-0-0-0-0-0-0-0-|0---0-0-0---0-0-|

  |1 + 2 + 3 + 4 + |1 + 2 + 3 + 4 + |1 + 2 + 3 + 4 + |1 + 2 + 3 + 4 + |
C1|X---X---X---X---|X---X---X---X---|X---X---X---X---|X---------------|
C2|X---------------|----------------|----------------|----------------|
S |----------------|0---------------|0-----0-----0---|--0000----------|
T1|----------------|----------------|----------------|------0000------|
T2|----------------|----------------|----------------|----------000000|
B |0-0-0-0-0-0-0-0-|0-0-0-0-0-0-0-0-|0-0-0---0-0---0-|0---------------|

  |1 + 2 + 3 + 4 + |1 + 2 + 3 + 4 + |1 + 2 + 3 + 4 + |1 + 2 + 3 + 4 + |
C1|X---X---X---X---|X---X---X---X---|X---X---X---X---|X---X---X-------|
C2|X---------------|----------------|X---------------|----------------|
S |----------------|0---------------|----------------|0-----0-0-------|
T2|----------------|----------------|----------------|----------0-0---|
B |0-0-0-0-0-0-0-0-|0-0-0-0-0-0-0-0-|0-0-0-0-0-0-0-0-|0-0-0-0-0-0-0-0-|
 
  |1 + 2 + 3 + 4 + |1 + 2 + 3 + 4 + |1 + 2 + 3 + 4 + |1 + 2 + 3 + 4 + |
C1|X---X---X---X---|X---X---X---X---|X---X---X---X---|X---------------|
C2|X---------------|----------------|----------------|----------------|
S |----------------|0---------------|0-----0-----0---|0-----------F---|
T1|----------------|----------------|----------------|------0---------|
T2|----------------|----------------|----------------|----0-----------|
B |0-0-0-0-0-0-0-0-|0-0-0-0-0-0-0-0-|0-0-0---0-0---0-|0-0-----0-0---0-|

Interlude 2 - 1:59
  /---------------x3----------------\
  |1 + 2 + 3 + 4 + |1 + 2 + 3 + 4 + |1 + 2 + 3 + 4 + |1 + 2 + 3 + 4 + |
S |----------------|----------------|----------------|0--0--------0---|
T1|----------------|----------------|----------------|------0---------|
B |----------------|----------------|--------------0-|----------0---0-|

Verse 3 - 2:14
  |1 + 2 + 3 + 4 + |1 + 2 + 3 + 4 + |1 + 2 + 3 + 4 + |1 + 2 + 3 + 4 + |
C1|X---------------|----------------|----------------|----------------|
H |-xxxXxxx-xxxXxxx|XxxxXxxx-xxxXxxx|XxxxXxxx-xxxXxxx|XxxxXxxx--xx-xxx|
S |--------0-------|--------0-------|--------0-------|--------0o--0---|
B |0---------------|0--0--0---------|0---------------|0--0--0---------|

  |1 + 2 + 3 + 4 + |1 + 2 + 3 + 4 + |1 + 2 + 3 + 4 + |1 + 2 + 3 + 4 + |
C1|X---------------|----------------|----------------|----------------|
H |-xxxXxxx-xxxXxxx|XxxxXxxx-xxxXxxx|XxxxXxxx-xxxXxxx|XxxxXxxx-xxx0ooo|
S |--------0-------|--------0-------|--------0-------|--------0-------|
B |0---------------|0--0--0---------|0---------------|0--0--0---------|

  |1 + 2 + 3 + 4 + |1 + 2 + 3 + 4 + |1 + 2 + 3 + 4 + |1 + 2 + 3 + 4 + |
C1|X---------------|----------------|----------------|----------------|
H |-ooo0ooo-ooo0ooo|0ooo0ooo-ooo0ooo|0ooo0ooo-ooo0ooo|0ooo0ooo--oo-ooo|
S |--------0-------|--------0-------|--------0-------|--------00--0---|
B |0---------------|0--0--0---------|0---------------|0--0--0---------|
 
  |1 + 2 + 3 + 4 + |1 + 2 + 3 + 4 + |1 + 2 + 3 + 4 + |1 + 2 + 3 + 4 + |
C1|X---------------|----------------|----------------|----------------|
H |-ooo0ooo-ooo0ooo|0ooo0ooo-ooo0ooo|0---0---0---0---|0---0-----------|
S |--------0-------|--------0-------|----------------|--------F-------|
T2|----------------|----------------|----------------|------------0---|
B |0---------------|0--0--0---------|0-0-0-0-0-0-0-0-|0-0-0-0---0---0-|

Bridge - 2:44
  |1 + 2 + 3 + 4 + |1 + 2 + 3 + 4 + |1 + 2 + 3 + 4 + |1 + 2 + 3 + 4 + |
C1|X---------------|----------------|----------------|----------------|
S |-ooo0ooo0ooo0ooo|0ooo0ooo0ooo0ooo|0ooo0ooo0ooo0ooo|0oo0oo0oo0oo0ooo|
B |0---------------|----------------|----------------|----------------|

  |1 + 2 + 3 + 4 + |1 + 2 + 3 + 4 + |1 + 2 + 3 + 4 + |1 + 2 + 3 + 4 + |
S |0ooo0ooo0ooo0ooo|0ooo0ooo0ooo0ooo|0ooo0ooo0ooo0ooo|-ooooo-ooooo-o00|
T1|----------------|----------------|----------------|0-----0-----0---|

  |1 + 2 + 3 + 4 + |1 + 2 + 3 + 4 + |1 + 2 + 3 + 4 + |1 + 2 + 3 + 4 + |
R |x---------------|----------------|----------------|----------------|
S |-ooo0ooo0ooo0ooo|0ooo0ooo0ooo0ooo|0ooo0ooo0ooo0ooo|0oo0oo0oo0oo0ooo|
B |0---0---0---0---|0---0---0---0---|0---0---0---0---|0---0---0---0---|
 
  |1 + 2 + 3 + 4 + |1 + 2 + 3 + 4 + |1 + 2 + 3 + 4 + |1 + 2 + 3 + 4 + |
S |0ooo0ooo0ooo0ooo|0ooo0ooo0ooo0ooo|0ooo0ooo0ooo0ooo|0ooo0ooo0ooo0ooo|
B |0---0---0---0---|0---0---0---0---|0---0---0---0---|0---0---0---0---|

  |1 + 2 + 3 + 4 + |1 + 2 + 3 + 4 + |
H |----f---f---f---|f---f---f---f---|
S |0---------------|----------------|
B |0---------------|----------------|

Chorus - 3:17
  |1 + 2 + 3 + 4 + |1 + 2 + 3 + 4 + |1 + 2 + 3 + 4 + |1 + 2 + 3 + 4 + |
C1|X---X---X---X---|X---X---X---X---|X---X---X---X---|X---X---X---X---|
C2|X---------------|----------------|X---------------|----------------|
S |----------------|0---------------|----------------|0-----0-0---0---|
B |0-0-0-0-0-0-0-0-|0-0-0-0-0-0-0-0-|0-0-0-0-0-0-0-0-|0-0-0-0-0-0-0-0-|

  |1 + 2 + 3 + 4 + |1 + 2 + 3 + 4 + |1 + 2 + 3 + 4 + |1 + 2 + 3 + 4 + |
C1|X---X---X---X---|X---X---X---X---|X---X---X---X---|X---------------|
C2|X---------------|----------------|----------------|----------------|
S |----------------|0---------------|0-----0-----0---|--00------------|
T1|----------------|----------------|----------------|----000000------|
T2|----------------|----------------|----------------|----------000000|
B |0-0-0-0-0-0-0-0-|0-0-0-0-0-0-0-0-|0-0-0---0-0---0-|0---------------|

  |1 + 2 + 3 + 4 + |1 + 2 + 3 + 4 + |1 + 2 + 3 + 4 + |1 + 2 + 3 + 4 + |
C1|X---X---X---X---|X---X---X---X---|X---X---X---X---|X---------------|
C2|X---------------|----------------|X---------------|----------------|
S |----------------|0---------------|----------------|0-----------0---|
T1|----------------|----------------|----------------|------0---------|
T2|----------------|----------------|----------------|----0---0---0---|
B |0-0-0-0-0-0-0-0-|0-0-0-0-0-0-0-0-|0-0-0-0-0-0-0-0-|0-0-------0---0-|

  |1 + 2 + 3 + 4 + |1 + 2 + 3 + 4 + |1 + 2 + 3 + 4 + |1 + 2 + 3 + 4 + |
C1|X---X---X---X---|X---X---X---X---|X---X---X---X---|X---X---X---X---|
C2|X---------------|----------------|----------------|----------------|
S |----------------|0---------------|0---------------|----------------|
B |0-0-0-0-0-0-0-0-|0-0-0-0-0-0-0-0-|0-0-0-0-0-0-0-0-|0-0-0-0-0-0-0-0-|

  |1 + 2 + 3 + 4 + |1 + 2 + 3 + 4 + |1 + 2 + 3 + 4 + |1 + 2 + 3 + 4 + |
C1|X---X---X---X---|X---X---X---X---|X---X---X---X---|X---X---X---X---|
C2|X---------------|----------------|X---------------|----------------|
S |----------------|0---------------|----------------|0-----0-0---0---|
B |0-0-0-0-0-0-0-0-|0-0-0-0-0-0-0-0-|0-0-0-0-0-0-0-0-|0-0-0-0-0-0-0-0-|

  |1 + 2 + 3 + 4 + |1 + 2 + 3 + 4 + |1 + 2 + 3 + 4 + |1 + 2 + 3 + 4 + |
C1|X---X---X---X---|X---X---X---X---|X---X---X---X---|X---------------|
C2|X---------------|----------------|----------------|----------------|
S |----------------|0---------------|0-----0-----0---|--00------------|
T1|----------------|----------------|----------------|----000000------|
T2|----------------|----------------|----------------|----------000000|
B |0-0-0-0-0-0-0-0-|0-0-0-0-0-0-0-0-|0-0-0---0-0---0-|0---------------|

  |1 + 2 + 3 + 4 + |1 + 2 + 3 + 4 + |1 + 2 + 3 + 4 + |1 + 2 + 3 + 4 + |
C1|X---X---X---X---|X---X---X---X---|X---X---X---X---|X---X-----------|
C2|X---------------|----------------|X---------------|----------------|
S |----------------|0---------------|----------------|0-----0-0---0---|
T2|----------------|----------------|----------------|------0-0---0---|
B |0-0-0-0-0-0-0-0-|0-0-0-0-0-0-0-0-|0-0-0-0-0-0-0-0-|0-0-0-0-0-0-0-0-|

  |1 + 2 + 3 + 4 + |1 + 2 + 3 + 4 + |1 + 2 + 3 + 4 + |1 + 2 + 3 + 4 + |
C1|X---X---X---X---|X---X---X---X---|X---X---X---X---|X---------------|
C2|X---------------|----------------|----------------|----------------|
S |----------------|0---------------|0-----0-----0---|--00------------|
T1|----------------|----------------|----------------|----000000------|
T2|----------------|----------------|----------------|----------000000|
B |0-0-0-0-0-0-0-0-|0-0-0-0-0-0-0-0-|0-0-0---0-0---0-|0---------------| 

  |1 + 2 + 3 + 4 + |1 + 2 + 3 + 4 + |1 + 2 + 3 + 4 + |1 + 2 + 3 + 4 + |
C1|X---X---X---X---|X---X---X---X---|X---X---X---X---|X---------------|
C2|X---------------|----------------|X---------------|----------------|
S |----------------|0---------------|----------------|0-----------0---|
T1|----------------|----------------|----------------|------0---------|
T2|----------------|----------------|----------------|----0---0---0---|
B |0-0-0-0-0-0-0-0-|0-0-0-0-0-0-0-0-|0-0-0-0-0-0-0-0-|0-0-------0---0-|

  |1 + 2 + 3 + 4 + |1 + 2 + 3 + 4 + |1 + 2 + 3 + 4 + |1 + 2 + 3 + 4 + |1
C1|X---X---X---X---|X---X---X---X---|X---X---X---X---|X---X---X---X---|X
C2|X---------------|----------------|----------------|----------------|X
S |----------------|0---------------|0---------------|----------------|-
B |0-0-0-0-0-0-0-0-|0-0-0-0-0-0-0-0-|0-0-0-0-0-0-0-0-|0-0-0-0-0-0-0-0-|X

End - 4:32
Tap to rate this tab
# A B C D E F G H I J K L M N O P Q R S T U V W X Y Z