Song name
# A B C D E F G H I J K L M N O P Q R S T U V W X Y Z

Agraceful - In Oceans tab

----------------------------------------------------------------------------
			     IN OCEANS - Agraceful
----------------------------------------------------------------------------
Tabbed by:Clayton777
Email:

I'm only doing lead for now, comment, correct, and rate, this is my 2nd tab. 

Tuning:Drop C

Intro...Play twice,
e|-------------------------------------------------------------------------|
B|-------------------------------------------------------------------------|
G|--10-----9------12-------------------------------------------------------|
D|--x--x8--x--x8--x--x16---------------------------------------------------|
A|--8------7------10-------------------------------------------------------|
E|-------------------------------------------------------------------------|


  Verse 1
e|-------------------------------------------------------------------------|
B|-------------------------------------------------------------------------|
G|-------------------------------------------------------------------------|
D|-------------------------------------------------------------------------|
A|-00---0000--00-----------------------------------------------------------|
E|-00---0000--00-----------------------------------------------------------|
PM **   ****  **

e|-------------------------------------------------------------------------|
B|-------------------------------------------------------------------------|
G|-------------------------------------------------------------------------|
D|-0~----------------------------------------------------------------------|
A|-0~----------------------------------------------------------------------|
E|-0~----------------------------------------------------------------------|

  Chorus, Repeat as needed,
e|-------------------------------------------------------------------------|
B|-0-6-8-0-5-7-0-6-8-0-3-5-3-----------------------------------------------|
G|-------------------------------------------------------------------------|
D|-------------------------------------------------------------------------|
A|-------------------------------------------------------------------------|
E|-------------------------------------------------------------------------|

   Play twice.
e|-------------------------------------------------------------------------|
B|-------------------------------------------------------------------------|
G|-------------------------------------------------------------------------
D|--0------101010-10~-888-8~------888-8~---101010--------------------------|
A|--0------101010-10~-888-8~--x3--888-8~---101010--------------------------|
E|--0------101010-10~-888-8~------888-8~---101010--------------------------|
PM          * * *     ***         ***
 
  Play 4 times,

e|-------------------------------------------------------------------------|
B|-------------------------------------------------------------------------|
G|--10----7------12--------------------------------------------------------|
D|--x-x8--x-x8----x-x16----------------------------------------------------|
A|--8-----5------10--------------------------------------------------------|
E|-------------------------------------------------------------------------|
 
 Play 2 times,
e|-------------------------------------------------------------------------|
B|-------------------------------------------------------------------------|
G|-------------------------------------------------------------------------|
D|--12~--12///--0~---------------------------------------------------------|
A|--12~--12///--0~---------------------------------------------------------|
E|--12~--12///--0~---------------------------------------------------------|

Play Chorus

  Play 4 times,
e|-------------------------------------------------------------------------|
B|-------------------------------------------------------------------------|
G|--10----7------12--------------------------------------------------------|
D|--x-x8--x-x8----x-x16----------------------------------------------------|
A|--8-----5------10--------------------------------------------------------|
E|-------------------------------------------------------------------------|
  
  Play twice,
e|-------------------------------------------------------------------------|
B|-------------------------------------------------------------------------|
G|-------------------------------------------------------------------------|
D|-0-----8-----10----------------------------------------------------------|
A|-0-x8--8-x4--10-x4-------------------------------------------------------|
E|-0-----8-----10----------------------------------------------------------|

  Repeat as needed,
e|-------------------------------------------------------------------------|
B|-------------------------------------------------------------------------|
G|-------------------------------------------------------------------------|
D|-------------------------------------------------------------------------|
A|-00-0000-00-00-----------------------------------------------------------|
E|-00-0000-00-00-----------------------------------------------------------|
PM ** **** ** **

  Play 4 times,
e|----------x--------x-----------------------------------------------------|
B|----------x--------x-----------------------------------------------------|
G|----------x101010--x121212-----------------------------------------------|
D|-0~-------x-x-x-x--x-x-x-x-----------------------------------------------|
A|-0~-------x-8-8-8--x101010-----------------------------------------------|
E|-0~-------x--------x-----------------------------------------------------|

  End on..
e|-------------------------------------------------------------------------|
B|-------------------------------------------------------------------------|
G|-------------------------------------------------------------------------|
D|--0~---------------------------------------------------------------------|
A|--0~---------------------------------------------------------------------|
E|--0~---------------------------------------------------------------------|

| /  slide up
| \  slide down
| h  hammer-on
| p  pull-off
| ~  vibrato
| +  harmonic
| x  Mute note
============================================================================
Tap to rate this tab
 
# A B C D E F G H I J K L M N O P Q R S T U V W X Y Z