Song name
# A B C D E F G H I J K L M N O P Q R S T U V W X Y Z

Agraceful - The Great I Am tab

-------------------------------------------------------------------------------
			     The Great I Am - Agraceful
-------------------------------------------------------------------------------
Tabbed by: Marcus Young (SHREDDING)
Email: marcusyoung12@hotmail.co.uk

Tuning: Drop D

Verse

e|-------------|
B|----------8--|
G|-12~------8~-|
D|-10~------6~-|
A|-10~------6~-|
D|-10~--x3--6~-|

Bridge

e|---------------------------------6---6---6---6---6---6---6---6----|
B|-8---8---8---8---6---6---6---6------------------------------------|
G|---8---8---8---8---8---8---8---8---8---8---8---8---8---8---8---8--|
D|------------------------------------------------------------------|
A|------------------------------------------------------------------|
D|------------------------------------------------------------------| 

x2

(back to verse 1)

Chorus

Guitar 1

e|-15-15-15-15-15-15-15-15-13-13-13-13-13-13-13-13-8-8-8-8-8-8-8-8-11-11-11-11-10-10-10-10-|
B|-----------------------------------------------------------------------------------------|
G|-----------------------------------------------------------------------------------------|
D|-----------------------------------------------------------------------------------------|
A|-----------------------------------------------------------------------------------------|
D|-----------------------------------------------------------------------------------------|

e|-15-15-15-15-15-15-15-15-15-15-15-15-15-15-15-15-8-8-8-8-8-8-8-8-10-10-10-10-11-11-11-11-|
B|-----------------------------------------------------------------------------------------|
G|-----------------------------------------------------------------------------------------|
D|-----------------------------------------------------------------------------------------|
A|-----------------------------------------------------------------------------------------|
D|-----------------------------------------------------------------------------------------|

Guitar 2

e|--------------------|
B|--------------------|
G|--------------------|
D|-10-----6-----8-----|
A|-10-----6-----8-----|
D|-10-x16-6-x16-8-x32-|

x2

Verse

Bridge x2

Chorus x6

Ending

e|-15~-|
B|-----|
G|-----|
D|-----|
A|-----|
D|-----|

************************************

| /   slide up
| \   slide down
| h   hammer-on
| p   pull-off
| ~   vibrato
| +   harmonic
| x   Mute note
| b   Bend
| pb  Pre-bend
| br  Bend release
| pbr Pre-bend release
| brb Bend release bend

************************************
Tap to rate this tab
# A B C D E F G H I J K L M N O P Q R S T U V W X Y Z