Song name
# A B C D E F G H I J K L M N O P Q R S T U V W X Y Z

Agua De Annique - Yalin chords

Highlighted       Show chord diagrams
Intro

e|--------------------------------------------------------------------------|
B|--------------------------------------------------------------------------|
G|--------------------------------------------------------------------------|
D|--------------------------------------------------------------------------|
A|----5-7--10-9--5-7-------5-7--10-9--5-10----------------------------------|
E|--------------------------------------------------------------------------|
        o     o    o         o     o    o
        Em    F#m  Em        Em    F#m  G  <- accentuate these notes

The notes above are played during the verse:

[Verse]
     Em           F#m   Em
My friend, she's gone away
     Em      F#m      Em
And left us here to stay
    F         Em
And I understand ... I do

     Em           F#m   Em
You write and think of her
     Em           F#m   Em
About whatever may occur
    F         Em
We ask the clouds in the sky ... We do


[Chorus]
G              Am              G
When you were here you didn't feed us
                 Am      G
When you passed over it hit us
    Am      Bm       Am
You are the one who knew
    G    F        Em       
The only hidden truth


[Verse]
     Em        F#m      Em
You write and think of her
          Em   F#m   Em
About whatever may occur
    F                     Em
We ask the clouds in the sky ... We do


[Chorus]
G              Am              G
When you were here you didn't feed us
                 Am      G
When you passed over it hit us
    Am      Bm       Am
You are the one who knew
    G    F        Em       
The only hidden truth


[Ah...]
G A G A (2x)


[Unexpected verse!]
D                     Em       D       
Thirty-four and I am hardly beginning to understand
  Em
What this is all about
D                        Em       D      Bm
Do you think you will be able to forgive me?
A
Do you?


[Ah...]
G A G A (2x)


[Solo] 
Play the following over the same sequence of G A G A

e|-----------------------------------------------------------------|
B|----15----15------14----14-------15----15---17---15--------------|
G|-----------------------------------------------------------------|
D|-12----12------12----12-------12----12----14---14----------------|
A|-----------------------------------------------------------------|
E|-----------------------------------------------------------------|

e|-----------------------------------------------------------------|
B|----15----15-----12----14-------15----15----17----15-------------|
G|-----------------------------------------------------------------|
D|-12----12------9----11-------12----12----14----14----------------|
A|-----------------------------------------------------------------|
E|-----------------------------------------------------------------|


[Last verse again]
D                     Em       D       
Thirty-four and I am hardly beginning to understand
  Em
What this is all about
D                        Em       D      Bm
Do you think you will be able to forgive me?
A
Do you?


Last note is a G, play it effectfully on the E string (3rd fret), then stop.
Tap to rate this tab
# A B C D E F G H I J K L M N O P Q R S T U V W X Y Z