Song name
# A B C D E F G H I J K L M N O P Q R S T U V W X Y Z

Agua De Annique - Day After Yesterday chords

Highlighted       Show chord diagrams
[Intro]
A#m  G#


[Verse]

A#m                    G#
Today is the day after yesterday
                           A#m
And yesterday didn't go so well
A#m                      G#
My love came down and assured me:
                          A#m
Sit down I have something to tell


[Chorus]

       C#            B
When I met you my eyes hurt
  A#m                     F#
That is how beautiful you are
 C#                      B
I don't suppose I could feel this way
A#m                       F#
If I still have you by my side
      A#m
By my side


[Verse]

A#m                       G#
I did not anticipate your candor
                                  A#m
Even though I didn't know you too well
A#m                                G#
You see one door close another door open
                                  A#m
But these doors lead me straight to hell


[Chorus]

       C#            B
When I met you my eyes hurt
  A#m                     F#
That is how beautiful you are
 C#                      B
I don't suppose I could feel this way
A#m                       F#
If I still have you by my side
      A#m
By my side


[Solo]
(play in Bb minor)

e|----6-8-9----------------------------------------------------------------|
B|------------6-7-9--------------------------------------------------------|
G|-------------------5-6-8-------------------------------------------------|
D|--------------------------8----------------------------------------------|
A|-------------------------------------------------------------------------|
E|-------------------------------------------------------------------------|

e|-------------------------------------------------------------------------|
B|-----6---6-----9-7-7---6---6----------6-7-6---6--------------------------|
G|-------8-----------------8--------6-8-------8-----6--6-535------6-8------|
D|-------------------------------------------------------------------------|
A|-------------------------------------------------------------------------|
E|-------------------------------------------------------------------------|


[Verse]

A#m     G#
If I just broken all
F#            
I gave it all
A#m       G#
That is how tired
F#                    
I don't suppose I could feel all this way 


[Outro]
(repeat solo)
Tap to rate this tab
# A B C D E F G H I J K L M N O P Q R S T U V W X Y Z