Song name
# A B C D E F G H I J K L M N O P Q R S T U V W X Y Z

Agua De Annique - Ice Water tab

[Verse]

    D#m
I shield you from this life
      E               D#m
Your heart is kept on ice
   D#m
I file you where I need
     E             D#m    
And keep you from the heat


[Chorus]

F#               D#m
Running, running away


[Verse]

    D#m
You hold me in contempt
   E              D#m
Forever will I depend
    D#m
You file me where you need
     E                    D#m
But never kept me from the heat


[Chorus]

F#               D#m
Falling, falling away
F#               D#m
Falling, falling away


[Verse]

      D#m
It's always cold in hell
        E            D#m
I have felt it I can tell
     D#m
They file you where they need
        E                D#m
In ice water there is no heat


[Chorus]

F#               D#m
Burning, burning away
F#               D#m
Burning, burning away


[Solo]

    E         G#m         E         G#m        F#
e|---------------------------------------------------------------------|
B|---------------------------------------------------------------------|
G|---------------------------------------------------------------------| 2x
D|----9-8--------13-11-9----9-8--------13-11-9---11-9-8---11-9-8-------|
A|--7-----9-9-11----------7-----9-9-11---------9--------9--------------|
E|---------------------------------------------------------------------|

  (second time, the lead guitar kicks in)

e|--6-7-6-7-6--6-7-6-7-6-----------------------------------------------|
B|------------------------7-7s9----------------------------------------|
G|--------------------------------8s9-8---8-6--------------------------|
D|--------------------------------------------9-8----------------------|
A|------------------------------------------------9--------------------|
E|---------------------------------------------------------------------|


[Chorus]

F#               D#m
Burning, burning away
F#               D#m
Burning, burning away


[Outro]

e|------------------------------------------------------------------------|
B|------------------------------------------------------------------------|
G|--11s13--11--10--8------(4x)--------------------------------------------|
D|------------------------------------------------------------------------|
A|------------------------------------------------------------------------|
E|------------------------------------------------------------------------|
Tap to rate this tab
 
# A B C D E F G H I J K L M N O P Q R S T U V W X Y Z