Song name
# A B C D E F G H I J K L M N O P Q R S T U V W X Y Z

Agua De Annique - Take Care Of Me tab

[Verse]

e|---------------------------------------------------------------------|
B|---------------------------------------------------------------------|
G|--7-7-7-7-7-7-7-7----------------------------------------------------|
D|--8-8-7-7-6-6-5-5----------------------------------------------------|
A|--5-5-5-5-5-5-5-5----------------------------------------------------|
E|---------------------------------------------------------------------|

Hush in my hands
There´s not a thing 
So precious than you in my hands
You can never let me leave you

[Chorus]

So please, take care of me

  (first guitar)
e|------------------------------------------------------------------------|
B|------------------------------------------------------------------------|
G|--10--10--10--10--7--7--7--7--------8--8--8--------7--7--7--7-----------|
D|--10--10--10--10--7--7--8--8--------8--8--8--------7--7--8-----8--------|
A|--8---8---8---8---5--5--5--5--5--6-----6--6--6--5-----5--5--------------|
E|------------------------------------------------------------------------|

  (second guitar)
e|------------------------------------------------------------------------|
B|----------------------------------------11------------11----------------|
G|----------------------------------8-7-8---------8-7-8-------------------|
D|------------------------------------------------------------------------|
A|------------------------------------------------------------------------|
E|------------------------------------------------------------------------|

[Verse]

Hail in my hands
The euphoric feel will never part with me
I spend my time in your hands
I'm as in love as I am tired

[Chorus]

So please, take care of me

Tap to rate this tab
# A B C D E F G H I J K L M N O P Q R S T U V W X Y Z