Agustin Barrios Mangore - El Sueno De La Munequita tab

I set up the tabs to make it easier to play so that its easier to make it
not buzz, better for newer players. This song is a classical piece written
by Agustin Barrios, a early 1900's composer. Apparently he wrote this song
because his squeeky shoes were waking up a little girls doll so she says,
and he played this song to put the "doll" to sleep, "El sueno de la
Munequita" Sleep of the little doll. Enjoy.

| /  slide up
| \  slide down
| h  hammer-on
| p  pull-off
| ~  sustained note
| h  harmonic
| x  Mute note



E|--0--3p1--0--------5--------4--------------------------------------------|
B|-------------1--1-----5--5-----3--3-----3/6--5--3--3--------3\--1--------|
G|-------------2--2-----5--5-----4--4-------------4--4-----4---------2--2--|
D|---------------------------------------------6---------------------2--2--|
A|----------0-----------------2-----------------------------------0--------|
E|-------------------0-----------------0----------------0------------------|


E|----------------------------------------------------7--------7-----------|
B|---------8p6-----------10----------8--------------8---8-7------7---------|
G|------9-------9--5--5------9---9------9--9------9----------8-------------|
D|-----------------7--7------10--10-----9--9----9------------9-------------|
A|--------------0----------------------------------------------------------|
E|--0---------------------0----------7--------7-----------7----------------|


E|----------7---------7--0----0--3p1--0--------5--------4------------------|
B|--------7---7-6------------------------1--1-----5--5-----3--3-----3--6---|
G|------8----------7---------------------2--2-----5--5-----4--4------------|
D|----9------------6-------------------------------------------------------|
A|------------------------------------0-----------------2------------------|
E|--7-----------0------------------------------0-----------------0---------|


E|--------------------------------------------0h1------------------0-------|
B|--5--0--0-----0--3--1--------2--------3-------------0--3--1-----3--------|
G|-----------------------2--2-----2--2-----2-------------------2-----------|
D|-----2--2--------------2--2-----2--2-------------------------2-----------|
A|--------------------0--------------------0----------------0--------------|
E|--4--------0-----------------3--------1----------0-----------------------|


E|-------------------------------------------------------------------------|
B|--------1--0-----1h3--------0--------------------------------------------|
G|-----2--------1----------------2-----------------------------------------|
D|--------------0----------2--------2--------------------------------------|
A|-----------2-------------------0-----3--0--------------------------------|
E|--0-------------------0--------------------------------------------------|

For this next part each note I put H over is going to be 12 notes higher 
in tone, you just need to use the 2 finger technique with your right hand
to get the harmonics.
(that's if your not lefty)

H|~~H~~~~~~~~H~~~~~~~~H~~~~~~~~H~~~~~~~~H~~~~~~~~H~~~~~~~~H~~~~~~~~H~~~~~~~|
                    
E|--|--------|--------|--------|--------|--------|--------|--------|-------|
B|--|--1--1--|--1--1--|--3--3--|--3--3--|--0--0--|--0--0--|--1--1--|--1--1-|
G|--|--2--2--|--2--2--|--1--1--|--1--1--|--1--1--|--1--1--|--2--2--|--2--2-|
D|-(2)-------|--------|--------|-------(3)------(2)-------|--------|-------|
A|----------(0)------(2)-------|-------------------------(3)------(0)------|
E|----------------------------(0)------------------------------------------|

H|~~H~~~~~~~~H~~~~~~~~H~~~~~~~~H~~~~~~~~H~~~~~~~~H~~~~~~~~H~~~~~~~~H~~~~~~~|

E|--|--3--3--|--3--3--|--1--1--|--1--1--|--1--1--|--1--1--|--0--0--|--0--0-|
B|--|--2--2--|--2--2--|--3--3--|--3--3--|--0--0--|--0--0--|--1--1--|--1--1-|
G|-(2)-------|-------(2)-------|-------(0)-------|-------(0)-------|-------|
D|-----------|----------------(0)----------------|-----------------|-------|
A|----------(0)----------------------------------|----------------(3)------|
E|----------------------------------------------(3)------------------------|

H|~~H~~~~~~~~H~~~~~~~~H~~~~~~~~H~~~~~~~~H~~~~~~~~H~~~~~~~~H~~~~~~~~~~~~~~~~|

E|--|--------|--------|--------|--------|--------|--------|----------------|
B|--|--3--3--|--3--3--|--1--1--|--1--1--|--0--0--|--3--3--|--1--1----------|
G|--|--1--1--|--1--1--|--2--2--|--2--2--|--2--2--|--4--4--|--2--2----------|
D|-(0)-------|-------(2)-------|--------|--------|--------|----------------|
A|----------(2)----------------|--------|--------|-------(0)---------------|
E|----------------------------(0)------(2)------(4)------------------------|

Repeat if wished =D
Tap to rate this tab
 
# A B C D E F G H I J K L M N O P Q R S T U V W X Y Z