Guitaretab - guitar tabs
Song name
# A B C D E F G H I J K L M N O P Q R S T U V W X Y Z

Agustin Barrios Mangore - Las Abejas tab

Its called THE BEES in english. You'll find out why after you've mastered it. I still 
some work to do in order to play it properly.

4/4 time - played at 152bpm (in other words, pretty fast)

Introduction:

    |    |   |    |    |   |   |   |
E-|------------------|-----------------||
B-|------------------|-----------------||
G-|-1/2------1/2-----|-1/2-------------||
D-|------------------|-----------------||
A-|------0--------0--|-----------------||
E-|------------------|-----------------||
    1        1         1


Part 1:

E-||----------------------------|-------------------------|
B-||----------------------------|-------------------------|
G-||*-1/2-----------2-----3-----|-2-----------2-----0-----|
D-||*-----3-------3---3-----5---|---3-------3---3-----2---|
A-||--------5-0h5-------5-----5-|-----5-0h5-------5-----4-|
E-||----------------------------|-------------------------|


                              C2--------------\

E-|-------------------------|-----------------------------|
B-|-------------------------|---------------2-5/10-10-10--|
G-|-----------0-2-3-5-3-2-0-|-2-----------2---------------|
D-|-3-------3---------------|---2-------2-----------------|
A-|---5---5-----------------|-----4-0h4-------------------|
E-|-----5-------------------|-----------------------------|


    C7-------------------------\   C3---------------------\

E-|------------------------------|-3-----------------------|
B-|-10p7-----------------7-10/11-|---3---------------------|
G-|------7-------------7---------|-----3-------------------|
D-|--------10p7---7h10-----------|-------5h3-------3-5h7-8-|
A-|-------------9----------------|-----------7-5h7---------|
E-|------------------------------|-------------------------|


E-|---------5h6-5-----------|--------------------------|
B-|-----5-8-------8-6-8p6-5-|-6p5---5------------------|
G-|---6---------------------|-----7---7-5-7p5---5---0--|
D-|-7-----------------------|-----------------8---8----|
A-|-------------------------|--------------------------|
E-|-------------------------|--------------------------|


E-|-------------------------|-------------------------|
B-|-------------------------|-------------------------|
G-|-2-----------2-----3-----|-2-----------2-----0-----|
D-|---3-------3---3-----5---|---3-------3---3-----2---|
A-|-----5-0h5-------5-----5-|-----5-0h5-------5-----4-|
E-|-------------------------|-------------------------|


E-|-------------------------|---------------------0-------|
B-|-------------------------|-------------------3---6-----|
G-|-----------0-2-3-5-3-2-0-|-2-----------2-3-5-----------|
D-|-3-------3---------------|---3-------3-----------------|
A-|---5---5-----------------|-----3-0-3-------------------|
E-|-----5-------------------|-----------------------------|
    1 4 3 4 1   1 2 4 2 1     1 3 2   2 3 1 2 4 2   2


    C5------------------------------\

E-|-------------------------|-----5-8/13p12-10-8p6-5-6-7--|
B-|-8p5---------------------|---6-------------------------|
G-|-----5-------------------|-5---------------------------|
D-|-------8p5---------5h7h8-|-----------------------------|
A-|-----------7-5h7h8-------|-----------------------------|
E-|-------------------------|-----------------------------|


                              C5----------\
                              |     |     |     |
E-|-8p5---0-----6-----------|---------5------------------||
B-|-----6---------8p5-------|-------6---8-6--------------||
G-|---------7p5-------5-----|-----5---------------------*||
D-|---------------------8p5-|---7-----------------------*||
A-|-------------------------|-8--------------------------||
E-|-------------------------|----------------------------||

Part 2:

E-||--------5-----4-----5-----|-6-----------8-------------|
B-||------6---6-----6-----6---|---8-------8---10-------10-|
G-||*---7-------7-----7-----7-|-----7---7--------7---7----|
D-||*-0-----------------------|-------0------------0------|
A-||--------------------------|---------------------------|
E-||--------------------------|---------------------------|


                              C3---------------------\

E-|-6-----------5-----------|-3-----------4-------------|
B-|---8-------8---7-------7-|---3-------3---6-------6---|
G-|-----7---7-------5---5---|-----3---3-------3---3-----|
D-|-------0-----------0-----|-------0-----------0-------|
A-|-------------------------|---------------------------|
E-|-------------------------|---------------------------|


    C2--------------------\               C5----------\

E-|-5-----------2-----------|-3---------------------------|
B-|---5-------5---4-------4-|---3-------3-5---------------|
G-|-----2---2-------2---2---|-----0---0-----6-------6-----|
D-|-------------------------|-----------------5---5-------|
A-|-------4-----------3-----|-------2---------------------|
E-|-------------------------|-------------------6---------|

E-|-------------------------|-------------------------|
B-|-6-----------5-----------|-3-----------------------|
G-|---5-------5---4-------4-|---3-------3-----3-----3-|
D-|-----3---3-------3---3---|-----2---2-----2-----2---|
A-|-------------------------|-------------------------|
E-|-------5-----------4-----|-------3-----2-----3-----|


                C3--------\   C2-----------------------\
[ Tab from: http://www.guitaretab.com/a/agustin-barrios-mangore/96000.html ]
E-|-------------------------|-----------------------------|
B-|-3-----------6-----5-----|-3-----------2---------------|
G-|---3-------3---3-----3---|---2-------2---2-------2-----|
D-|-----2---2-------5-----5-|-----2---2-------2---2-------|
A-|-------------------------|-------0-----------0---------|
E-|-------3-----------0-----|-----------------------------|


                C3--------\   C2-----------------------\

E-|-------------------------|-----------------------------|
B-|-3-----------6-----5-----|-3-----------2---------------|
G-|---3-------3---3-----3---|---2-------2---2-------2-----|
D-|-----2---2-------5-----5-|-----2---2-------2---2-------|
A-|-------------------------|-------0-----------0---------|
E-|-------3-----------0-----|-----------------------------|

E-|-10-------------13------12------|-10-----------9-----------|
B-|----11-------11----11------11---|----8-------8---8-------8-|
G-|-------0---0----------0-------0-|------9---9-------9---9---|
D-|--------------------------------|--------7-----------7-----|
A-|--------------------------------|--------------------------|
E-|---------0----------------------|--------------------------|


    C8--------------------\

E-|-8-----------8-----------|-7-----------7---------------|
B-|---8-------8---8-------8-|---8-------8---8-------8-----|
G-|-----9---9-------9---9---|-----9---9-------9---9-------|
D-|-------8-----------8-----|-------9-----------9---------|
A-|-------------------------|-----------------------------|
E-|-------------------------|-----------------------------|


                                Ending 1----------------\

E-|-6------------6------------|-5------------5------------||
B-|---8--------8---8--------8-|---8--------8---8--------8-||
G-|-----9----9-------9----9---|-----9----9-------9----9--*||
D-|-------10-----------10-----|-------11-----------11----*||
A-|---------------------------|---------------------------||
E-|---------------------------|---------------------------||


    Ending 2---------------------------------------------\

E-|-5------------5------------|-5------------5------------|
B-|---8--------8---8--------8-|---8--------8---8--------8-|
G-|-----9----9-------9----9---|-----9----9-------9----9---|
D-|-------11-----------11-----|-------11-----------11-----|
A-|---------------------------|---------------------------|
E-|---------------------------|---------------------------|


    |   |   |   |
E-|----------------||
B-|----------------||
G-|----------------||
D-|-<7>------------||
A-|----------------||
E-|----------------||


Play intro again. Then continue:

Part 3

E-||----------------------------|-------------------------|
B-||----------------------------|-------------------------|
G-||*-1/2-----------2-----3-----|-2-----------2-----0-----|
D-||*-----3-------3---3-----5---|---3-------3---3-----2---|
A-||--------5-0h5-------5-----5-|-----5-0h5-------5-----4-|
E-||----------------------------|-------------------------|

                              C2--------------\

E-|-------------------------|-----------------------------|
B-|-------------------------|---------------2-5/10-10-10--|
G-|-----------0-2-3-5-3-2-0-|-2-----------2---------------|
D-|-3-------3---------------|---2-------2-----------------|
A-|---5---5-----------------|-----4-0h4-------------------|
E-|-----5-------------------|-----------------------------|


    C7-------------------------\   C3---------------------\

E-|------------------------------|-3-------------------------|
B-|-10p7-----------------7-10/11-|---3-----------------------|
G-|------7-------------7---------|-----3---------------------|
D-|--------10p7---7h10-----------|-------5h3-------3-5h7-8---|
A-|-------------9----------------|-----------7-5h7-----------|
E-|------------------------------|---------------------------|

E-|---------5h6-5-----------|--------------------------|
B-|-----5-8-------8-6-8p6-5-|-6p5---5------------------|
G-|---6---------------------|-----7---7-5-7p5---5---0--|
D-|-7-----------------------|-----------------8---8----|
A-|-------------------------|--------------------------|
E-|-------------------------|--------------------------|

E-|-------------------------|-------------------------|
B-|-------------------------|-------------------------|
G-|-2-----------2-----3-----|-2-----------2-----0-----|
D-|---3-------3---3-----5---|---3-------3---3-----2---|
A-|-----5-0h5-------5-----5-|-----5-0h5-------5-----4-|
E-|-------------------------|-------------------------|


                              C2--------------\

E-|-------------------------|-----------------------------|
B-|-------------------------|---------------2-5/10-10-10--|
G-|-----------0-2-3-5-3-2-0-|-2-----------2---------------|
D-|-3-------3---------------|---2-------2-----------------|
A-|---5---5-----------------|-----4-0h4-------------------|
E-|-----5-------------------|-----------------------------|


    C7-------------------------\   C3---------------------\

E-|------------------------------|-3-----------------------|
B-|-10p7-----------------7-10/11-|---3---------------------|
G-|------7-------------7---------|-----3-------------------|
D-|--------10p7---7h10-----------|-------5h3-------0-------|
A-|-------------9----------------|-----------7-5h7---3-1-0-|
E-|------------------------------|-------------------------|


                                                      C10
                              |    |    |     |
E-|---0-------0-1p0---------|-----------5----------|--10--||
B-|-----3---3-------2-------|-----------7----------|--10--||
G-|-------4-----------2p0---|-----------6----------|--10--||
D-|-----------------------2-|-0--------------------|--0---||
A-|-------------------------|-----------0----------|------||
E-|-4-----------------------|----------------------|------||
Related for Las Abejas tab
Las Abejas chords by Agustin Barrios Mangore