Song name
# A B C D E F G H I J K L M N O P Q R S T U V W X Y Z

Agustin Pio Barrios Mangore - Vals Estudio tab

#----------------------------------PLEASE NOTE--------------------------------#
#This file is the author's own work and represents their interpretation of the#
#song. You may only use this file for private study, scholarship, or research.#
#-----------------------------------------------------------------------------#

Augustin Pio Barrios Mangore (1885-1944)
Vals Estudio n.1

Transcribed by Davide Bioccoli 

Time = 6/8
6th string = D

---14p12/10----------0---------|---7-5/3-----------------|---7p5------
------------12p10------3-------|---------5p2-------------|-------7-4--
------------------11-----2-----|-------------4p2---------|-----------4
---------------------------4p0-|-----------------5p2-----|------------
-------------------------------|-4-------------------4p0-|------------
-0-----------------------------|-------------------------|-4----------

-------------|---4p2-----0-------------|-----------0-4h5-7-9-10-12-|
---7p5-0-----|-------3-----3p0---------|---------2-----------------|
---------0---|---------4-------1-------|-------2-------------------|
-----------2-|-------------------2p0---|-----2---------------------|
-------------|-----------------------2-|-0h4-----------------------|
-5-----------|-2-----------------------|---------------------------|

                                                                          FINE
---14p10-------------------------|---5p2-------5p3-2h5-----|----------------||
---------11-------11p9-------0---|-------3-------------0-2-|-3--------------||
------------12-10------10------1-|---------4p2-------------|---2-----------*||
--------------------------12-----|-------------------------|-----4p0-------*||
---------------------------------|-0-----------------------|---------0------||
-0-------------------------------|-------------------------|-----------4-0--||

|---------------0-----5/9-12-|---12p10/7-----0-----------|
|-------------2---5h7--------|-----------9p7---3p0-------|
|*----------2----------------|---------------------1-----|
|*------2h4------------------|-----------------------2p0-|
|--0-------------------------|---------------------------|
|----------------------------|-9-------------------------|

---5p4-------------------|---6---0-----------------|-----------7p5-----------|
-------6---0-------------|-----7---2---------------|---0-----0-----7p4---0---|
---------6---1-----------|-----------3-------------|-------------------6---2-|
---------------3---------|-------------4p2---------|-----4h7-----------------|
-4---------------4p2-0---|-----------------4p1-----|-------------------------|
-----------------------6-|-4-------------------4p2-|-6-----------------------|

-----2p0-4p2-------------|---0-----------0---------|---0-------0-4h5-7-9/10-12
-------------3p0---------|---------0h2---------0h3-|---------2----------------
---1-------------1-------|-------2-----------1-----|-----2h4------------------
-------------------2p0---|-----2-----------2-------|--------------------------
-----------------------2-|-0-----------2-----------|-4------------------------
-2-----------------------|-------------------------|--------------------------

---14p12/10----------0---------|-------------6-----------|
------------12p10------3-------|-----------6-------6-8-9-|
------------------11-----2-----|---------7-------7-------|
---------------------------4p0-|---0---8-------8---------|
-------------------------------|-----8-------------------|
-0-----------------------------|-8-----------------------|

---5p2-------------------|----------------------||
-------3-----------------|----------------------||
---------4p3-2p0---------|---------7p4---------*||
-----------------4h5-----|-----4p0------12^----*||
-0-------------------2h4-|-5p0------------------||
-------------------------|--------------12^-----||

                                      D.C. al FINE

Tap to rate this tab
# A B C D E F G H I J K L M N O P Q R S T U V W X Y Z