Song name
# A B C D E F G H I J K L M N O P Q R S T U V W X Y Z

Ahab - The Hunt tab

Band: Ahab
Song: The Hunt
Album: The Call Of The Wretched Sea
Tuning: CFA#D#GC

Legend:
. - Palm Mute
/ - Slide Up To
\ - Slide Down To
b - Bend
() - Ghost Note

Q=85-90bpm

Intro (00:00-01:01)

                                     x4                                    x4
|-------------------------------------|-------------------------------------|
|-------------------------------------|-------------------------------------|
|---19--19---18--18---15--15---16--16-|---18--18---17--17---14--15---15--15-|
|-16--16---16--16---16--16---16--16---|-15--15---15--15---15--15---15--15---|
|-------------------------------------|-------------------------------------|
|-------------------------------------|-------------------------------------|

                                     x4                                   
|-------------------------------------|
|-------------------------------------|
|---19--19---18--18---15--15---16--16-|
|-16--16---16--16---16--16---16--16---|
|-------------------------------------|
|-------------------------------------|


Gtr. 1 (01:02-03:33)


|-------------------------------------|-------------------------------------|
|-------------------------------------|-------------------------------------|
|-------------------------------------|-------------------------------------|
|---4---------------------------------|-2-----------------------------------|
|-4-4---------------------------------|-2----------------4/5b---(5)---------|
|-2-2---------------------------------|-0----------------2/3b---(3)---------|
  .

Gtr. 2


|-------------------------------------|
|-------------------------------------|
|---19--19---18--18---15--15---16--16-|
|-16--16---16--16---16--16---16--16---|
|-------------------------------------|
|-------------------------------------|


Gtr. 2 (03:34-03:53)


|-------------------------------------|
|-------------------------------------|
|---19--19---18--18---15--15---16--16-|
|-16--16---16--16---16--16---16--16---|
|-------------------------------------|
|-------------------------------------|


Gtr. 1 and 2 (03:54-06:00)


|-------------------------------------|-------------------------------------|
|-------------------------------------|-------------------------------------|
|-------------------------------------|-------------------------------------|
|-------------------------------------|-------------------------------------|
|-2--4-4---4---2--4--4---4---4-4/8----|-2--4-4---4---2--4--5-4---4-2--------|
|-0--2-2---2---0--2--2---2---2-2/6----|-0--2-2---2---0--2--3-2---2-0--------|
                             .                             .     .

Gtr. 1 and 2 (06:01-08:10)


|-------------------------------------|-------------------------------------|
|-------------------------------------|-------------------------------------|
|-------------------------------------|-------------------------------------|
|-2----------------2--------/9--------|-3----------------3---------/10------|
|-2----------------2--------/9--------|-3----------------3---------/10------|
|-0----------------0--------/7--------|-1----------------1---------/8-------|


Gtr. 1 (08:11-08:42)


|-------------------------------------|-------------------------------------|
|-------------------------------------|-------------------------------------|
|-------------------------------------|-------------------------------------|
|-2----------------2------------------|-2----------------2------------------|
|-2----------------2------------------|-2----------------2------------------|
|-0----------------0------------------|-0----------------0------------------|


Gtr. 2


|-------------------------------------|
|-------------------------------------|
|-12--13---16--15-----12--13---16--15-|
|-------------------------------------|
|-------------------------------------|
|-------------------------------------|


Gtr. 1 (08:43-10:52)


|-------------------------------------|
|-------------------------------------|
|-------------------------------------|
|----2------2---------2-------2-------|
|-22-2----2-2----2-22-2-----2-2-------|
|-00-0----0-0----0-00-0-----0-0-------|
  ..      .      . ..       .

|-------------------------------------|
|-------------------------------------|
|-------------------------------------|
|----2-------2-------2---------6---5--|
|-22-2----22-2----22-2----2-22-6---5--|
|-00-0----00-0----00-0----0-00-4---3--|
  ..      ..      ..      . ..

Gtr. 2 (08:43-10:52)


|-------------------------------------|-------------------------------------|
|--------19-20--------19-20-----------|-19-20--------19-20------------------|
|-16-----------17-----------16--------|-------15-----------16-----19-21--15-|
|-------------------------------------|-------------------------------------|
|-------------------------------------|-------------------------------------|
|-------------------------------------|-------------------------------------|


|-------------------------------------|
|-------------------------------------|
|-19-21-------------------------------|
|-------18-----17-18--13-----12-------|
|-------------------------------------|
|-------------------------------------|


Outro (10:53-11:13) (Fade away)


|-------------------------------------|
|-------------------------------------|
|-16----------------------------------|
|-------------------------------------|
|-------------------------------------|
|-------------------------------------|
Tap to rate this tab
# A B C D E F G H I J K L M N O P Q R S T U V W X Y Z