Song name
# A B C D E F G H I J K L M N O P Q R S T U V W X Y Z

Ahumado Granujo - To Mince And Fuck Up tab

Ahumado Granujo: To Mince and Fuck Up
Off of "Splatter-Tekk"
(c)Downfall Records
http://sweb.cz/ahumado/ketamine.htm

Suffixes:
. = Palm Mute
L = Let Ring
x = Mute Immediately

Riff Aa: (0:00)
Bb|------------------------------|
F |------------------------------|
Db|------------------------------|
Ab|9---------------9-------------|
Eb|7----6-8--6-9-8-7---6-8--6-9-8|
Bb|---0-4-6--4-7-6---0-4-6--4-7-6|(x2)
   L      L        L     L

Riff Ab: (0:07)
Bb|-------------------------|
F |-------------------------|
Db|-------------------------|
Ab|9------------9-----------|
Eb|7-6-8--6-9-8-7-6-8--6-9-8|
Bb|--4-6--4-7-6---4-6--4-7-6|(x2)
   L L L  L L L L L L  L L L

Pre Riff B: (0:14) Guitar One:
Bb|-|
F |-|
Db|-|
Ab|2|
Eb|2|
Bb|0|(x1)
   L

Pre Riff B: (0:14) Guitar Two (Underneath):
Bb|-----------------------|
F |-----------------------|
Db|-----------------------|
Ab|9-----------9----------|
Eb|7-6-8-6-9-8-7-6-8-6-9-8|
Bb|--4-6-4-7-6---4-6-4-7-6|(x1)

(0:18) Guitar 1:
Bb|-----------------------|
F |-----------------------|
Db|-----------------------|
Ab|9-----------9----------|
Eb|7-----------7-------9-8|
Bb|--------------------7-6|(x1)

(0:18) Guitar 2: Riff B(x1)

(0:21) Both Guitars: Riff B(x2)

(0:26) Riff C:
Bb|------------------------------|
F |------------------------------|
Db|------------------------------|
Ab|9-9--9--------10-10--10-6-6--6|
Eb|7-7--7-8-8--8--8--8---8-4-4--4|
Bb|-------6-6--6-----------------|(x1)

Bb|------------------------------|
F |------------------------------|
Db|------------------------------|
Ab|9-9--9--------10-10--10-------|
Eb|7-7--7-8-8--8--8--8---8-10-9-8|
Bb|-------6-6--6------------8-7-6|(x1)
                            . . .

(Repeat)

(0:34) Riff D:
Bb|----------------------|
F |----------------------|
Db|----------------------|
Ab|----------------------|
Eb|3--4--7--6--3--4--7--5|
Bb|1--2--5--4--1--2--5--4|(x2)

(0:41) Riff B (x2)

(0:47) Riff C (x1)

(0:54) Riff D (x2)
Tap to rate this tab
# A B C D E F G H I J K L M N O P Q R S T U V W X Y Z