Song name
# A B C D E F G H I J K L M N O P Q R S T U V W X Y Z

Ai Kago - No Hesitation tab

No hesitation - Kago Ai
http://totallyhelloproject.wordpress.com/2009/04/13/kago-ai-debut-single-no-hesitation-2009-06-24/

Lyrics found at: http://www.hello-online.org/index.php?showtopic=7976&st=4040
Many thanks to Burichu ~ Koi no Fuga

tabbed by manOutOfTime (neil_willey@hotmail.com)

Key: A

-------------------------------------|----|--------------------|-------------|
--------10---9---12---10-9/10---9----|----|--------10---9------|-------------|
-9-9-11--------9------------------9--|----|-9-9-11--------9-7v-|-------------|
-------------------------------------|----|--------------------|-------------|
-------------------------------------|----|--------------------|-------------|
-------------------------------------|-x3-|--------------------|-------------|

E	         Esus4    E
tooku hanarete chigau kuuki wo abite
E	  Esus4     A	        E
futo miagereba sora ga mitsumeteta


C#m              E
hanpa na kimochi burasagete
F#m            A
ookina nimotsu kata ni sagete
C#m	           E
sonna no wa mou iranai
F#m	         D
atarashiku hajimeru no

E	        C#m	        A          F#m
ameagari no hareta sora ni niji wo egakou
E	             C#m	   A            C#m
anata ni ai ga todoku youni kisu wo komete

  C#m	               A
kumorizora wo oikoshitara
  C#m           D
doki ni datte yukeru kara
	         E
no hesitation

**Intro Riff x2 **

E	           Esus4   E
deau mono subete imi ga aru to kidzuita
E	       Esus4      A	           E
toomawari shita 		keishiki itoshikute

C#m                 E
kushakusha no chizu wo hirogete
F#m               A
boroboro ni natta kutsu de aruku
C#m	                 E
sore ga atashirashii nano
F#m	            D
jibun rashiku susumeba ii

E	          C#m	    A            F#m
niji no mukou e ai ni yukou hateshinai sora
E	             C#m	        A       C#m
anata ni omoi todoketakute shikatanai kara

  C#m	                 A
kumorizora wo oikoshitara
C#m           D
doki ni datte yukeru kara
	         E
no hesitation

**Solo**
-----------------------------------------------------------------------------|
------------/14-14-14-14-16-17----12-----------------------------------------|
------------/13-13-13-13-------------11p10p9---------------------------------|
----------------------------------------------11p10p9p7----------------------|
---------------------------------------------------------11p10p9\7-----------|
-----------------------------------------------------------------------------|

------------------------7---------------------------------------------12-----|
-------------------7-7bhhhh7h7h7r-5-7-5---4b-4---7-7-5-4-5v--7/12--12----12--|
------------6-8-989-----------------------4b-4---7-7-5-4-5v------------------|
-------/6-9------------------------------------------------------------------|
-4h5h7-----------------------------------------------------------------------|
-----------------------------------------------------------------------------|

-14----16----12-12---18br-16-17-16h17p16p14----------------------------------|
----12----12-----------------------------------------------------------------|
--------------------------------------------16-16v---------------------------|
-----------------------------------------------------------------------------|
-----------------------------------------------------------------------------|
-----------------------------------------------------------------------------|

E	          C#m	    A            F#m
ameagari no hareta sora ni niji wo egakou
E	          C#m	    A            C#m
anata ni ai ga todoku youni kisu wo komete

  C#m	                 A
kumorizora wo oikoshitara
C#m           D
doki ni datte yukeru kara
	         E
no hesitation

**Intro Riff x4**
Tap to rate this tab
# A B C D E F G H I J K L M N O P Q R S T U V W X Y Z