Guitaretab - guitar tabs
Song name
# A B C D E F G H I J K L M N O P Q R S T U V W X Y Z

Ai Otsuka - Planterium tab

-----------------------------------------------------------------------------
			Planetarium - Ai Otsuka
-----------------------------------------------------------------------------

Tuning:Standard


e|--------------------------------------------------------------------------|
B|-------------------------------------------------11-11-11-10-10-10-8-8-8--|
G|---------------------------------------10--8--7---------------------------|
D|-------13--12----15--13--12p10--8--10b------------------------------------|
A|--7/10--------9-----------------------------------------------------------|
E|--------------------------------------------------------------------------|
[ Tab from: http://www.guitaretab.com/a/ai-otsuka/113258.html ]
e|--------------------------------------------------------------------------|
B|--6--8-------------------------------------------18--15--13---------18----|
G|-----------10--8--7--12--14--15--14--15--17-17b----------------17b--------|
D|--------------------------------------------------------------------------|
A|--------------------------------------------------------------------------|
E|--------------------------------------------------------------------------|

e|--------------------------------------------------------------------------|
B|--15-15p13----------------------------------------------------------------|
G|-----------15--17b--15----------------------------------------------------|
D|--------------------------------------------------------------------------|
A|--------------------------------------------------------------------------|
E|--------------------------------------------------------------------------|

/ /  slide up
| \  slide down
| h  hammer-on
| p  pull-off
| ~  vibrato
| +  harmonic
| x  Mute note
=============================================================================
Related for Planterium tab
Advertisement will be closed in 10 seconds