Song name
# A B C D E F G H I J K L M N O P Q R S T U V W X Y Z

Aicle - Shinzou tab

Tuning: Standard

E|--------------------------------------------------12p8-----12p8-13p8-12p8-|
B|-13p8-------------8-13p8--------------8-13p8----------12p8----------------|
G|------10p9----9h10--------10p9--------10p9--------------------------------|
D|----------10--------------------10----------------------------------------|
A|--------------------------------------------------------------------------|
E|--------------------------------------------------------------------------|
        x2
E|-10p8-|---------8-12p8------|-/20-19-------------------|------------------|
B|------|------10--------10---|--------20----------------|---------8-13p9---|
G|------|----9--------------9-|-----------19\9-9b(10)(9)-|----9h10--------10|
D|------|-10------------------|--------------------------|-10---------------|
A|------|---------------------|--------------------------|------------------|
E|------|---------------------|--------------------------|------------------|

E|------15p12-------------------15-13-12------------------------------------|
B|------------13p12-15p12----------------12-13~~~~~~------------------------|
G|-9----------------------14p12---------------------------------------------|
D|--------------------------------------------------------------------------|
A|--------------------------------------------------------------------------|
E|--------------------------------------------------------------------------|

Key:
\=slide up
/=slide down
~=vibrato
b=bend
p=pull off
h=hammer down
Tap to rate this tab
# A B C D E F G H I J K L M N O P Q R S T U V W X Y Z