Song name
# A B C D E F G H I J K L M N O P Q R S T U V W X Y Z

Aiden - The Same Beginning tab

Help us improve GuitareTab! Take a short survey!
VERSE(s)


|-------3-----|-------3-----|-------2------3------2----|
|---3-----3---|---3-----3---|---3-----3------3------3--|
|-0---0-----0-|-0---0-----0-|-2---2-----2------2------2|
|-2-----------|-2-----------|-0------------------------|
|-------------|-------------|--------------------------|
|-------------|-------------|--------------------------|

|-------3-----|-------3-----|-------2------3------2----|
|---3-----3---|---3-----3---|---3-----3------3------3--|
|-0---0-----0-|-0---0-----0-|-0---2-----2------2------2|
|-2-----------|-2-----------|-0------------------------|
|-------------|-------------|--------------------------|
|-------------|-------------|--------------------------|


CHORUS (chords) * figure out the strumming pattern REALLY EASY *

|--3---3---3---3---|--3---3---3---3---3---2---|
|--3---3---3---3---|--3---3---3---3---3---3---|
|--0---0---0---2---|--0---2---0---2---0---2---|
|--0---2---2---0---|--0---0---2---0---2---0---|
|--2---3---2-------|--2-------3-------2-------|
|--3---x---0-------|--3-------x-------0-------|

VERSE

CHORUS


BRIDGE

|---3---3---3---3---|--3---3---3---|
|---2---3---3---2---|--3---3---3---|
|---0---0---0---0---|--0---0---0---|
|---0---2---3---0---|--2---2---3---|
|---2---3---3---2---|--3-------3---|
|---3---x---0---3---|--x-------0---|

VERSE




CHORUS X2

VERSE
Related for The Same Beginning tab