Song name
# A B C D E F G H I J K L M N O P Q R S T U V W X Y Z

Aiden - Bridge Of Reason Shore Of Faith tab

Help us improve GuitareTab! Take a short survey!
                                    ok guys, so i noticed theres not any bridge of
shore of faith tabs, so i decided start one, im not gonna post the whole thing though 
i
have enough time, and i dont know it... heh so im just give ppl a feel of the song so 
it is... by the way if anyone has more of the tab please contact me at k3ritz@msn.com
here it is

e|--------11------11------11-----------------5------13----12---8-8-8-8-8--|
B|----9-9----9-9------9-9-------------0-----------------------------------|
G|------------------------------------------------------------------------|
D|------------------------------------------------------------------------|
A|------------------------------------------------------------------------|
E|------------------------------------------------------------------------|

                                      or

e|---------7-------7--------7-------------5------13----12---8-8-8-8-8--------------------|
B|--5-5-------5-5-----5-5------------0---------------------------------------------------|
G|---------------------------------------------------------------------------------------|
D|---------------------------------------------------------------------------------------|
A|---------------------------------------------------------------------------------------|
E|---------------------------------------------------------------------------------------|

                              sorry its not complete but there you go
Related for Bridge Of Reason Shore Of Faith tab