Guitaretab - guitar tabs
Song name
# A B C D E F G H I J K L M N O P Q R S T U V W X Y Z

Aiden - See You In Hell tab

Aiden
Nightmare Anatomy
See You In Hell…
Drop Db

I looked at the tab and it was mostly right except it wasn’t tuned right and there were 
few mistakes that are easy to fix


GUITAR 1
|------------|------------|------------|------------|
|------------|------------|------------|------------|
|------------|------------|------------|------------|
|-7777777777-|-5555555555-|-3333333333-|-3333333333-|
|-7777777777-|-5555555555-|-3333333333-|-3333333333-|
|-7777777777-|-5555555555-|-3333333333-|-3333333333-|


VERSE
|--------------|--------------|--------------|--------------|
|--------------|--------------|--------------|--------------|
|--------------|--------------|--------------|--------------|
|--------------|-555555555555-|-333333333333-|-555555555555-|
|--------------|-555555555555-|-333333333333-|-555555555555-|
|--------------|-555555555555-|-333333333333-|-555555555555-|
PM               ............   ............   ............

Cont
|--------------|--------------|--------------|--------------|
|--------------|--------------|--------------|--------------|
|--------------|--------------|--------------|--------------|
|-777777777777-|-555555555555-|-333333333333-|-555555555555-|
|-777777777777-|-555555555555-|-333333333333-|-555555555555-|
|-777777777777-|-555555555555-|-333333333333-|-555555555555-|
PM............   ............   ............   ............


PRE CHORUS
guitar 1
|--------------|--------------|--------------|--------------|
|--------------|--------------|--------------|--------------|
|--------------|--------------|--------------|--------------|
|-333333333333-|-555555555555-|-333333333333-|-5------------|
|-333333333333-|-555555555555-|-333333333333-|-5------------|
|-333333333333-|-555555555555-|-333333333333-|-5------------|

CHORUS
|------------|------------|------------|------------|
|------------|------------|------------|------------|
|------------|------------|------------|------------|
|-7777777777-|-5555555555-|-3333333333-|-3333333333-|
|-7777777777-|-5555555555-|-3333333333-|-3333333333-|
|-7777777777-|-5555555555-|-3333333333-|-3333333333-|

BRIDGE
|------------|------------|------------|------------|
|------------|------------|------------|------------|
|------------|------------|------------|------------|
|-77-------7-|-55-------5-|-3333333333-|-3333333333-|
|-77-------7-|-55-------5-|-3333333333-|-3333333333-|
|-77-------7-|-55-------5-|-3333333333-|-3333333333-|
[ Tab from: http://www.guitaretab.com/a/aiden/139895.html ]
|------------|------------|------------|------------|
|------------|------------|------------|------------|
|------------|------------|------------|------------|
|-7777777777-|-5555555555-|-3333333333-|-3333333333-|
|-7777777777-|-5555555555-|-3333333333-|-3333333333-|
|-7777777777-|-5555555555-|-3333333333-|-3333333333-|
PM  .......      .......      .......      .......


GUITAR 2
Intro
|------------|------------|------------|------------|
|------------|-66666-5555-|------------|------------|
|-44444-5555-|------------|-5555555555-|-5555555555-|
|------------|------------|------------|------------|
|------------|------------|------------|------------|
|------------|------------|------------|------------|


Verse x2
|--------------|--------------|--------------|--------------|
|--------------|--------------|--------------|--------------|
|-5454-4h5p4h5-|-5454-4h5p4h5-|-5454-4h5p4h5-|-5474-3h4p3h4-|
|--------------|--------------|--------------|--------------|
|--------------|--------------|--------------|--------------|
|--------------|--------------|--------------|--------------|


Pre Chorus
|--------------|-------3------|--------------|--------------|
|-------6-5----|--------------|-------6-5----|--------------|
|-4-5-4--------|-4-5-4--------|-4-5-4--------|-4-5----------|
|--------------|--------------|--------------|--------------|
|--------------|--------------|--------------|--------------|
|--------------|--------------|--------------|--------------|

Chorus
|------------|------------|------------|------------|
|------------|-66666-5555-|------------|------------|
|-44444-5555-|------------|-5555555555-|-5555555555-|
|------------|------------|------------|------------|
|------------|------------|------------|------------|
|------------|------------|------------|------------|

BRIDGE
|------------|------------|------------|------------|
|------------|------------|------------|------------|
|------------|------------|------------|------------|
|-77-------7-|-55-------5-|-3333333333-|-3333333333-|
|-77-------7-|-55-------5-|-3333333333-|-3333333333-|
|-77-------7-|-55-------5-|-3333333333-|-3333333333-|

|------------|------------|------------|------------|
|------------|------------|------------|------------|
|------------|------------|------------|------------|
|-7777777777-|-5555555555-|-3333333333-|-3333333333-|
|-7777777777-|-5555555555-|-3333333333-|-3333333333-|
|-7777777777-|-5555555555-|-3333333333-|-3333333333-|
PM  .......      .......      .......      .......


I think this is better, figure out the order yourself tho ok?
Related for See You In Hell tab
×
See You In Hell