Song name
# A B C D E F G H I J K L M N O P Q R S T U V W X Y Z

Aiden - One Love tab

Help us improve GuitareTab! Take a short survey!
One love by Aiden

Standard tuning

Intro/verse riff

E|----------------------------------------------------------------|
B|---1-------0---------1--------0----0--1-------------------------|
G|-2---2---2---2----2----2----2---2-------------------------------|
D|----------------------------------------------------------------|
A|----------------------------------------------------------------|
E|----------------------------------------------------------------|

Chorus 
    C     D     E     D        *END ON E AND LET RING LAST TIME
E|--------------------------|--------------------------------------|
B|--------------------------|--------------------------------------|
G|--5-----7-----9-----7-----|---9----------------------------------|
D|--5-----7-----9-----7----|---9----------------------------------|
A|--3-----5-----7-----5-----|---7----------------------------------|
E|--------------------------|--------------------------------------|

Solo/bridge thing

E|----------------------------------------------------------------|
B|----------------------------------------------------------------|
G|----------------------------------------------------------------|
D|----------------------------------------------------------------|
A|--15--14----14H1514H15---15---14-----12-----10-----------------|
E|----------------------------------------------------------------|

E|----------------------------------------------------------------|
B|----------------------------------------------------------------|
G|----------------------------------------------------------------|
D|----------------------------------------------------------------|
A|--15--14----14H1514H15---15---14-----19-----17-----------------|
E|----------------------------------------------------------------|


ORDER:

VERSE X6

CHORUS X3 *

VERSE X6

CHORUS X4 *

SOLO

VERSE X2

CHORUS UNTIL ENDEND ON C
Related for One Love tab