Guitaretab - guitar tabs
Song name
# A B C D E F G H I J K L M N O P Q R S T U V W X Y Z

Aiden - The Sky Is Falling tab

-------------------------------------------------------------------------------
			  THE SKY IS FALLING - AIDEN
-------------------------------------------------------------------------------
Tabbed by:

Tuning:Low to High 
D-G-C-F-A-D

I hear the sky is falling...
e|-------------|------------|------------|-------------|
B|-------------|------------|------------|-------------|
G|-------------|------------|------------|-------------| X2
D|-------------|------------|------------|-------------|
A|---5--5--5--5|--4--4--4--4|--5--5--5--5|--5--5--5--5-|
E|--3--3--3--3-|-5--5--5--5-|-7--7--7--7-|-7--7--7--7--|

If all we are is dust....              How I wanted to
e|------------|------------|------------|---------------|
B|------------|------------|------------|---------------|
G|------------|------------|------------|---------------|
D|--4--4--4--4|------------|--4--4--4--4|--4--4--4--4---|
A|-5--5--5--5-|--4--4--4--4|-5--5--5--5-|-5--5--5--5----|
E|------------|-5--5--5--5-|------------|---------------|

say......
e|-------------|------------|------------|-------------|
B|-------------|------------|------------|-------------|
G|-------------|------------|------------|-------------| X3
D|-------------|------------|------------|-------------|
A|---5--5--5--5|--4--4--4--4|--5--5--5--5|--5--5--5--5-|
E|--3--3--3--3-|-5--5--5--5-|-7--7--7--7-|-7--7--7--7--|

Armed with words...
e|------------|------------|------------|---------------|
B|------------|------------|------------|---------------|
G|------------|------------|------------|---------------|
D|--4--4--4--4|------------|--4--4--4--4|--4--4--4--4---|
A|-5--5--5--5-|--4--4--4--4|-5--5--5--5-|-5--5--5--5----|
E|------------|-5--5--5--5-|------------|---------------|

e|-------------|------------|------------|-------------|
B|-------------|------------|------------|-------------|
G|-------------|------------|------------|-------------|
D|-------------|------------|------------|-------------|
A|---5--5--5--5|--4--4--4--4|--5--5--5--5|--5--5--5--5-|
E|--3--3--3--3-|-5--5--5--5-|-7--7--7--7-|-7--7--7--7--|

e|-------------|------------|------------|-------------|-------------|
B|-------------|------------|------------|-------------|-------------|
G|-------------|------------|------------|-------------|-------------|
D|-------------|------------|------------|-------------|-------------|
A|---4--4--4--4|--4--4--4--4|--5--5--5--5|--5--5--5--5-|--4--4--4--4-|
E|--5--5--5--5-|-5--5--5--5-|-3--3--3--3-|-3--3--3--3--|-5--5--5--5--|
[ Tab from: http://www.guitaretab.com/a/aiden/165031.html ]
e|-------------|
B|-------------|
G|-------------|
D|-------------|
A|--4--4--4--4-|
E|-5--5--5--5--|

Now kiss me..
e|-------------|------------|------------|------------|------------|
B|-------------|------------|------------|------------|------------|
G|-------------|------------|------------|------------|------------|
D|--5--5--5--5-|--5--5--5--5|--4--4--4--4|--4--4--4--4|--5--5--5--5|
A|-7--7--7--7--|-7--7--7--7-|-5--5--5--5-|-5--5--5--5-|-3--3--3--3-|
E|-------------|------------|------------|------------|------------|

e|-------------|------------|------------|
B|-------------|------------|------------|
G|-------------|------------|------------|
D|--5--5--5--5-|--4--4--4--4|--4--4--4--4|X2
A|-3--3--3--3--|-5--5--5--5-|-5--5--5--5-|
E|-------------|------------|------------|

I know the sky...
e|-------------|------------|------------|-------------|
B|-------------|------------|------------|-------------|
G|-------------|------------|------------|-------------| X2
D|-------------|------------|------------|-------------|
A|---5--5--5--5|--4--4--4--4|--5--5--5--5|--5--5--5--5-|
E|--3--3--3--3-|-5--5--5--5-|-7--7--7--7-|-7--7--7--7--|

e|------------|------------|------------|---------------|
B|------------|------------|------------|---------------|
G|------------|------------|------------|---------------|
D|--4--4--4--4|------------|--4--4--4--4|--4--4--4--4---|
A|-5--5--5--5-|--4--4--4--4|-5--5--5--5-|-5--5--5--5----|
E|------------|-5--5--5--5-|------------|---------------|

e|-------------|------------|------------|-------------|
B|-------------|------------|------------|-------------|
G|-------------|------------|------------|-------------|
D|-------------|------------|------------|-------------|
A|---5--5--5--5|--4--4--4--4|--5--5--5--5|--5--5--5--5-|
E|--3--3--3--3-|-5--5--5--5-|-7--7--7--7-|-7--7--7--7--|

e|-------------|------------|------------|-------------|-------------|
B|-------------|------------|------------|-------------|-------------|
G|-------------|------------|------------|-------------|-------------|
D|-------------|------------|------------|-------------|-------------|
A|---4--4--4--4|--4--4--4--4|--5--5--5--5|--5--5--5--5-|--4--4--4--4-|
E|--5--5--5--5-|-5--5--5--5-|-3--3--3--3-|-3--3--3--3--|-5--5--5--5--|

e|-------------|---|
B|-------------|---|
G|-------------|---|
D|-------------|-0-|
A|--4--4--4--4-|-5-|
E|-5--5--5--5--|-7-|

e|----------|-----------|------|
B|----------|-----------|------|
G|----------|-----------|------|
D|-5555-7777|-9999-7777-|--5~--|
A|-5555-7777|-9999-7777-|--5~--|
E|-3333-5555|-7777-5555-|--3~--|




Related for The Sky Is Falling tab
Advertisement will be closed in 10 seconds