Song name
# A B C D E F G H I J K L M N O P Q R S T U V W X Y Z

Aiden - Scavengers Of The Damned tab

-------------------------------------------------------------------------------
			     Scavengers of the damned - Aiden
-------------------------------------------------------------------------------
Tabbed by:Spencer Bond (lu13cky)
Email:lu13cky@yahoo.com

Tuning:eadgbe

This is my first tab. Its pretty close im sure its off a little bit but I figured this 
help some one els with tabbing this song. Feel free to edit this as much as you want or 
with the rest of the song. Please give me credit for my little part though.

e|---------------------------------------------------------------------------|
B|---------------------------------------------------------------------------|
G|---------------------------------------------------------------------------|
D|---------------------------------------------------------------------------|
A|---55---77---5-3-2---------------------------------------------------------|
E|---33---55---3-1-0---------------------------------------------------------|

e|---------------------------------------------------------------------------|
B|---------------------------------------------------------------------------|
G|--------5------------------------------------------------------------------|
D|----------8-7--------------------------------------------------------------|
A|--3/5-8--------------------------------------------------------------------|
E|---------------------------------------------------------------------------|
Tap to rate this tab
# A B C D E F G H I J K L M N O P Q R S T U V W X Y Z