Song name
# A B C D E F G H I J K L M N O P Q R S T U V W X Y Z

Aiden - Elizabeth Acoustic tab

Help us improve GuitareTab! Take a short survey!
-------------------------------------------------------------------------------
			     Elizabeth acoustic - Aiden
-------------------------------------------------------------------------------
Tabbed by:Spencer Bond
Email:lu13cky@Yahoo.com

Tuning:eadgbe

This is the acoustic bonus track verion of elizabeth from aidens new cd knives. You can
videos online of them playing it live acoustic as well as the studio version, I based
off both. This is basicly how the whole song goes theirs a few chords missing. Fell free 
make corrections

e|---------------------------------------------------------------------------|
B|---------------------------------------------------------------------------|
G|---5--xxxx-----------------------------------------------------------------|
D|---5--xxxx--55-xxx----66---xxx---33----xxx---------------------------------|
A|---5--xxxx--55-xxx----66---xxx---33----xxx---------------------------------|
E|------------33-xxx----44---xxx---11----xxx---------------------------------|


e|-----------------------------------------------------------------------------|
B|-----------------------------------------------------------------------------|
G|-55--xxx---------------------------------------------------------------------|
D|-55--xxx---55-xxx---66--xxx----33--xxx----------5----------------------------|
A|-33--xxx---55-xxx---66--xxx----33--xxx----------5--x10-----------------------|
E|-----------33-xxx---44--xxx----11--xxx----------3----------------------------|

e|---------------------------------------------------------------------------|
B|---------------------------------------------------------------------------|
G|---5--------------------------------5-----------3--------------------------|
D|---5--x?---5------------6-----------5---x?------3---x?------5----x?--------|
A|---3-------5-----x?-----6---x?------3-----------1-----------5--------------|
E|-----------3------------4-----------------------------------3--------------|
Related for Elizabeth Acoustic tab