Song name
# A B C D E F G H I J K L M N O P Q R S T U V W X Y Z

Aiden - We Sleep Forever tab

Hey guys!! This song is kinda weird to play but nice to the ear. I'm putting in Lead 
and Rhythm Guitar, cause it would be making more sense. Please send the corrections to 
Comment, rate, vote, subscribe. Enjoy playing this =)

\/ Lead Guitar \/

INTRO: Lead Guitar + Rhythm Guitar + Bass + Drums

Lead only here

e-----------------------------------------------------------------------------|
B--9--7--6---9--7--6----------------------------------------------------------|
G---6--6--6---6--6--6---------------------------------------------------------|
D-8--8--8--8---8--8--8--------------------------------------------------------|
A-----------------------------------------------------------------------------|
E-----------------------------------------------------------------------------|

This is where Rhythm Guitar, Bass, and Drums come  in. I'm not very sure of how many 
Lead Guitar does this, but just do it until the verse ;)

e-----------------------------------------------------------------------------|
B--9--7--6---9--7--6---9--7--6---9--7--6---9--7--6---9--7--6---9--7--6--------|
G---6--6--6---6--6--6---6--6--6---6--6--6---6--6--6---6--6--6---6--6--6-------|
D-8--8--8--8---8--8--8---8--8--8---8--8--8---8--8--8---8--8--8---8--8--8------|
A-----------------------------------------------------------------------------|
E-----------------------------------------------------------------------------|


VERSE 1: Vocals + Bass + Drums + Lead Guitar

Lead Guitar come after "God won't forgive me for this I know"

e-----------------------------------------------------------------------------|
B-----------------------------------------------------------------------------|
G-----------------------------------------------------------------------------|
D-6h8-6h888-6h88888-6h8-6h888-6h8888-6h8-6h888-6h8888-------------------------|
A-----------------------------------------------------------------------------|
E-----------------------------------------------------------------------------|

PRE-CHORUS 1: Vocals + Lead Guitar

"And close your eyes love"

e-----------------------------------------------------------------------------|
B--9--7--6---9--7--6----------------------------------------------------------|
G---6--6--6---6--6--6---------------------------------------------------------|
D-8--8--8--8---8--8--8--------------------------------------------------------|
A-----------------------------------------------------------------------------|
E-----------------------------------------------------------------------------|

CHORUS 1: Vocals + Lead Guitar + Rhythm Guitar + Bass + Drums

I also don't know how many times this is played

e-----------------------------------------------------------------------------|
B--9--7--6---9--7--6---9--7--6---9--7--6---9--7--6---9--7--6---9--7--6--------|
G---6--6--6---6--6--6---6--6--6---6--6--6---6--6--6---6--6--6---6--6--6-------|
D-8--8--8--8---8--8--8---8--8--8---8--8--8---8--8--8---8--8--8---8--8--8------|
A-----------------------------------------------------------------------------|
E-----------------------------------------------------------------------------|

VERSE 2: Vocals + Lead Guitar + Bass + Drums

Keep playing this till the end of the verse.

e-----------------------------------------------------------------------------|
B-----------------------------------------------------------------------------|
G-----------------------------------------------------------------------------|
D-6h8-6h888-6h88888-6h8-6h888-6h8888-6h8-6h888-6h8888-6h8-6h888-6h8888--------|
A-----------------------------------------------------------------------------|
E-----------------------------------------------------------------------------|

CHORUS 2: Vocals + Lead Guitar + Rhythm Guitar + Bass + Drums

This is the same as the first chorus :D

e-----------------------------------------------------------------------------|
B--9--7--6---9--7--6---9--7--6---9--7--6---9--7--6---9--7--6---9--7--6--------|
G---6--6--6---6--6--6---6--6--6---6--6--6---6--6--6---6--6--6---6--6--6-------|
D-8--8--8--8---8--8--8---8--8--8---8--8--8---8--8--8---8--8--8---8--8--8------|
A-----------------------------------------------------------------------------|
E-----------------------------------------------------------------------------|

BRIDGE: Vocals + Lead Guitar + Rhythm Guitar + Bass + Drums

Lead Guitar comes in with lyrics

e-----------------------------------------------------------------------------|
B--9--7--6---9--7--6---9--7--6---9--7--6---9--7--6----------------------------|
G---6--6--6---6--6--6---6--6--6---6--6--6---6--6--6---------------------------|
D-8--8--8--8---8--8--8---8--8--8---8--8--8---8--8--8--------------------------|
A-----------------------------------------------------------------------------|
E-----------------------------------------------------------------------------|

e-----------------------------------------------------------------------------|
B--9--7--6---9--7--6---9--7--6---9--7--6---9--7--6----------------------------|
G---6--6--6---6--6--6---6--6--6---6--6--6---6--6--6---------------------------|
D-8--8--8--8---8--8--8---8--8--8---8--8--8---8--8--8--------------------------|
A-----------------------------------------------------------------------------|
E-----------------------------------------------------------------------------|

Stop Guitar and continue at "Hold on!! Hold on!! Tonight love!! We'll sleep forever!!" 
I also don't know how many times it goes, so just keep doing it till "Close your eyes"

e-----------------------------------------------------------------------------|
B--9--7--6---9--7--6---9--7--6---9--7--6---9--7--6----------------------------|
G---6--6--6---6--6--6---6--6--6---6--6--6---6--6--6---------------------------|
D-8--8--8--8---8--8--8---8--8--8---8--8--8---8--8--8--------------------------|
A-----------------------------------------------------------------------------|
E-----------------------------------------------------------------------------|

OUTRO: Vocals + Lead Guitar + Rhythm Guitar + Bass + Drums

Just keep going on like this till the end of the song

e-----------------------------------------------------------------------------|
B--9--7--6---9--7--6---9--7--6---9--7--6---9--7--6----------------------------|
G---6--6--6---6--6--6---6--6--6---6--6--6---6--6--6---------------------------|
D-8--8--8--8---8--8--8---8--8--8---8--8--8---8--8--8--------------------------|
A-----------------------------------------------------------------------------|
E-----------------------------------------------------------------------------|

This is the last note

e----------------------------------------------------------------------------|
B----------------------------------------------------------------------------|
G----------------------------------------------------------------------------|
D-3~~~~~~~~~~~~~~~~~~~~~~~~~~~~~~~~~~~~~~~~~~~~~~~~~~~~~~~~~~~~~~~~~~~~~~~~~~
A-3~~~~~~~~~~~~~~~~~~~~~~~~~~~~~~~~~~~~~~~~~~~~~~~~~~~~~~~~~~~~~~~~~~~~~~~~~~
E-1~~~~~~~~~~~~~~~~~~~~~~~~~~~~~~~~~~~~~~~~~~~~~~~~~~~~~~~~~~~~~~~~~~~~~~~~~~


|| Rhythm Guitar ||

INTRO: Lead Guitar + Rhythm Guitar + Bass + Drums

e----------------------------------------------------------------------------|
B----------------------------------------------------------------------------|
G----------------------------------------------------------------------------|
D-8-8-6-6-4-4-6-6-8-8-6-6-4-4-6--8-8-6-6-4-4-6-6-8-8-6-6-44444444-66666------|
A-8-8-6-6-4-4-6-6-8-8-6-6-4-4-6--8-8-6-6-4-4-6-6-8-8-6-6-44444444-66666------|
E-6-6-4-4-2-2-4-4-6-6-4-4-2-2-4--6-6-4-4-2-2-4-4-6-6-4-4-22222222-44444------|

VERSE 1: Vocals + Lead Guitar + Bass + Drums

N/A

CHORUS 1: Vocals + Lead Guitar + Rhythm Guitar + Bass + Drums

e----------------------------------------------------------------------------|
B----------------------------------------------------------------------------|
G----------------------------------------------------------------------------|
D-8-8-6-6-4-4-6-6-8-8-6-6-4-4-6--8-8-6-6-4-4-6-6-8-8-6-6-44444444-66666------|
A-8-8-6-6-4-4-6-6-8-8-6-6-4-4-6--8-8-6-6-4-4-6-6-8-8-6-6-44444444-66666------|
E-6-6-4-4-2-2-4-4-6-6-4-4-2-2-4--6-6-4-4-2-2-4-4-6-6-4-4-22222222-44444------|

VERSE 2: Vocals + Lead Guitar + Bass + Drums

N/A

CHORUS 2: Vocals + Lead Guitar + Rhythm Guitar + Bass + Drums

e-----------------------------------------------------------------------------|
B-----------------------------------------------------------------------------|
G-----------------------------------------------------------------------------|
D-8-8-6-6-4-4-6-6-8-8-6-6-4-4-6--8-8-6-6-4-4-6-6-8-8-6-6-44444444-66666/2~----|
A-8-8-6-6-4-4-6-6-8-8-6-6-4-4-6--8-8-6-6-4-4-6-6-8-8-6-6-44444444-66666/2~----|
E-6-6-4-4-2-2-4-4-6-6-4-4-2-2-4--6-6-4-4-2-2-4-4-6-6-4-4-22222222-44444/1~----|

BRIDGE: Vocals + Lead Guitar + Rhythm Guitar + Bass + Drums

I'm not very sure about this part but I'm trying my best here

e-----------------------------------------------------------------------------|
B-----------------------------------------------------------------------------|
G-----------------------------------------------------------------------------|
D-XXXXXXXX-4-XXXXXX-6-XXXXXX-8-XX-6-XX-2-XXXXXXXX-4-XXXXXX-6-XXXXXX-8-XX-6-XX-|
A-XXXXXXXX-4-XXXXXX-6-XXXXXX-8-XX-6-XX-2-XXXXXXXX-4-XXXXXX-6-XXXXXX-8-XX-6-XX-|
E-XXXXXXXX-2-XXXXXX-4-XXXXXX-6-XX-4-XX-1-XXXXXXXX-2-XXXXXX-4-XXXXXX-6-XX-4-XX-|

e----------------------------------------------------------------------------|
B----------------------------------------------------------------------------|
G----------------------------------------------------------------------------|
D-2~
A-2~
E-1~

"I go deeper, I see it..." -- " I will say good-bye tonight, we sleep forever... Hold on!!"

e-----------------------------------------------------------------------------|
B-----------------------------------------------------------------------------|
G-----------------------------------------------------------------------------|
D-44-66-88-66-22-44-66-88-66-22--8-6-4-6-88888888-66666666-44444444-66666666--|
A-44-66-88-66-22-44-66-88-66-22--8-6-4-6-88888888-66666666-44444444-66666666--|
E-22-44-66-44-11-22-44-66-44-11--6-4-2-4-66666666-44444444-22222222-44444444--|

e-----------------------------------------------------------------------------|
B-----------------------------------------------------------------------------|
G-----------------------------------------------------------------------------|
D-88888888-66666666-44444444-66666666-88888888-66666666-44444444-66666666-----|
A-88888888-66666666-44444444-66666666-88888888-66666666-44444444-66666666-----|
E-66666666-44444444-22222222-44444444-66666666-44444444-22222222-44444444-----|

There's a small interlude before wiL says "Close your eyes"

e----------------------------------------------------------------------------|
B----------------------------------------------------------------------------|
G----------------------------------------------------------------------------|
D-33333333-------------------------------------------------------------------|
A-33333333-------------------------------------------------------------------|
E-11111111-------------------------------------------------------------------|

OUTRO: Vocals + Lead Guitar + Rhythm Guitar + Bass + Drums

e----------------------------------------------------------------------------|
B----------------------------------------------------------------------------|
G----------------------------------------------------------------------------|
D-8-8-6-6-4-4-6-6-8-8-6-6-4-4-6--8-8-6-6-4-4-6-6-8-8-6-6-44444444-66666------|
A-8-8-6-6-4-4-6-6-8-8-6-6-4-4-6--8-8-6-6-4-4-6-6-8-8-6-6-44444444-66666------|
E-6-6-4-4-2-2-4-4-6-6-4-4-2-2-4--6-6-4-4-2-2-4-4-6-6-4-4-22222222-44444------|

e-----------------------------------------------------------------------------|
B-----------------------------------------------------------------------------|
G-----------------------------------------------------------------------------|
D-8-8-6-6-4-4-6-6-8-8-6-6-4-4-6--8-8-6-6-4-4-6-6-8-8-6-6-44444444-66666/2~~~~-|
A-8-8-6-6-4-4-6-6-8-8-6-6-4-4-6--8-8-6-6-4-4-6-6-8-8-6-6-44444444-66666/2~~~~-|
E-6-6-4-4-2-2-4-4-6-6-4-4-2-2-4--6-6-4-4-2-2-4-4-6-6-4-4-22222222-44444/1~~~~-|

That's about it.

PLZ SUGGEST SOME OTHER SONG OF UR OWN AND I'LL TAB IT FOR U =)
Tap to rate this tab
# A B C D E F G H I J K L M N O P Q R S T U V W X Y Z