Song name
# A B C D E F G H I J K L M N O P Q R S T U V W X Y Z

Aiden - Silent Eyes tab

Ok, I am 99% sure this is correct. I watched Wil play it on the new cd/dvd From Hell
Love and I think I finally have it right.. So here it is.. Enjoy. Also, This is my first
so feel free to let me know if there is a mistake but I felt someone needed to put this 
on here correctly so I tried.. Comment please... -Caleb

Verse
e|-----5-----5-----5-----5-----5-----5-----5-----5-|
B|-----5-----5-----5-----5-----5-----5-----5-----5-|
G|-----5-----5-----5-----5-----5-----5-----5-----5-|
D|-7-7-7-7-7-7-7-7-7-7-7-7-7-7-7-7-7-7-7-7-7-7-7-7-|
A|-7-7-7-7-7-7-7-7-7-7-7-7-8-8-8-8-8-8-8-8-8-8-8-8-|
E|-0-0-0-0-0-0-0-0-0-0-0-0-0-0-0-0-0-0-0-0-0-0-0-0-|


e|-----5-----5-----5-----5-----3-----3-----3-----3-|
B|-----5-----5-----5-----5-----0-----0-----0-----0-|
G|-----5-----5-----5-----5-----0-----0-----0-----0-|
D|-7-7-7-7-7-7-7-7-7-7-7-7-0-0-0-0-0-0-0-0-0-0-0-0-|
A|-7-7-7-7-7-7-7-7-7-7-7-7-2-2-2-2-2-2-2-2-2-2-2-2-|
E|-0-0-0-0-0-0-0-0-0-0-0-0-3-3-3-3-3-3-3-3-3-3-3-3-|

Pre-Chorus
e|-0--0-0-3--3-3-0--0-0-0-0-0-0-0-0-xxxx-----------|
B|-1--1-1-0--0-0-1--1-1-1-1-1-1-1-1-xxxx-----------|
G|-0--0-0-0--0-0-0--0-0-0-0-0-0-0-0-xxxx-----------|
D|-2--2-2-0--0-0-2--2-2-2-2-2-2-2-2-xxxx-----------|
A|-3--3-3-2--2-2-3--3-3-3-3-3-3-3-3-xxxx-----------|
E|-0--0-0-3--3-3-0--0-0-0-0-0-0-0-0-xxxx-----------|

Chorus 1(Figure out strumming on your own)
e|-0--3--0--3--0--3--------------------------------|
B|-1--0--1--0--1--0--------------------------------|
G|-0--0--2--0--0--0--------------------------------|
D|-2--0--2--0--2--0--------------------------------|
A|-3--2--0--2--3--2--------------------------------|
E|-0--3--0--3--0--3--------------------------------|

Chorus 2(Figure out strumming on your own)
e|-0--3--0--3--0--3--0--3--0--3---------------------|
B|-1--0--1--0--1--0--1--0--1--0---------------------|
G|-0--0--2--0--0--0--2--0--0--0---------------------|
D|-2--0--2--0--2--0--2--0--2--0---------------------|
A|-3--2--0--2--3--2--0--2--3--2---------------------|
E|-0--3--0--3--0--3--0--3--0--3---------------------|

Bridge(Figure out strumming on your own)
e|-0--3--0---------0---------------------------------|
B|-1--0--1---------1---------------------------------|
G|-0--0--2--x4-----0---------------------------------|
D|-2--0--2---------2---------------------------------|
A|-3--2--0---------3---------------------------------|
E|-0--3--0---------0---------------------------------|

Bridge

Song Structure:
Verse x2
Pre-Chorus x1
Chorus x1
Verse x2
Pre-Chorus x1
Bridge x1
Verse(Palm Muted) x1
Pre-Chorus x1
Chorus 2 x1

Verse:
This is the last time
through hell, I've seen your insides
Tear out your eyes tonight, you'll see
Is this where my angel lies?
I've cut you up to see me
Am I worth a thousand lies?

Pre-Chorus:
Infect your perfect sliced up skin

Chorus 1
You wrote the book on silent eyes
And I wrote this song to say goodbye
This is the last time that I'll...

Verse:
It's raining in cuts so bright,
The screaming soothes the anger
I've never been so scared alive
When friends that crash goodbye
Their soul will change the future
and that's where the beauty in death resides
Infect your perfect sliced up skin

Chorus 1:
You wrote the book on silent eyes
And I wrote this song to say goodbye
This is the last time that I'll...

Bridge:
Save the rain he's alive [x4]
(he's alive)

Verse(Palm Muted):
Friends that crash goodbye
Your soul will change the future
and that's where the beauty in death resides

Bridge:
Infect your perfect sliced up skin

Chorus 2:
You wrote the book on silent eyes
And I wrote this song to say goodbye
You wrote the book on silent eyes
And I wrote this song to say goodbye
This is the last time that I'll cry

Hope you enjoy playing Silent Eyes by Aiden..
Tap to rate this tab
# A B C D E F G H I J K L M N O P Q R S T U V W X Y Z