Song name
# A B C D E F G H I J K L M N O P Q R S T U V W X Y Z

Aiden - Cold December tab

Artist: Aiden
Song: Cold December
Album: Our Gang's Dark Oath

Tabbed by: Sensesfail_Dude

Tuning: half step down

Notes: this is the rhythm guitar, sorry i'm tabbing it out on my acoustic
 and it sounds like sh*t and dont know if its right with the lead guitar


0:00 - 0:06   those nights we walked....
|-----------------------------------------------------------------------------|
|-----------------------------------------------------------------------------|
|-----------------------------------------------------------------------------|
|-10-10-10-10--10-10-10-10--10-10---------------------------------------------|
|--0---0---0---0---0---0---0---0---0---0--------------------------------------|
|-----------------------------------------------------------------------------|
   x    x    x     x    x     x    x    x    x    x

0:07 - 0:10   i couldnt sleep....
|-----------------------------------------------------------------------------|
|-----------------------------------------------------------------------------|
|-----------------------------------------------------------------------------|
|-10-10-10-10--10-10-10-10--10-10---------------------------------------------|
|--8---8---8---8---8---8---8---8---8---8--------------------------------------|
|-----------------------------------------------------------------------------|
   x    x    x    x     x     x    x    x    x    x


0:11 - 0:13     i still remember
|-----------------------------------------------------------------------------|
|-----------------------------------------------------------------------------|
|-----------------------------------------------------------------------------|
|-----------------------------------------------------------------------------|
|-10-10-10-10--10-10-10-10--10-10---------------------------------------------|
|--8---8---8---8---8---8---8---8---8---8--------------------------------------|
   x    x    x     x    x    x     x    x    x     x


0:14 - 0:16        what you wore
|-----------------------------------------------------------------------------|
|-----------------------------------------------------------------------------|
|-----------------------------------------------------------------------------|
|-----------------------------------------------------------------------------|
|--5--5--5--5--5--5--5--5--5--5-----------------------------------------------|
|--3--3--3--3--3--3--3--3--3--3-----------------------------------------------|
   x   x   x   x   x   x   x   x   x   x


0:17 - 0:19        the cold december air
|-----------------------------------------------------------------------------|
|-----------------------------------------------------------------------------|
|-----------------------------------------------------------------------------|
|-----------------------------------------------------------------------------|
|--3--3--3--3--3--3--3--3--3--3-----------------------------------------------|
|--1--1--1--1--1--1--1--1--1--1-----------------------------------------------|
   x   x   x   x   x   x   x   x   x   x


0:20 - 0:23       rain hit your hair
|-----------------------------------------------------------------------------|
|-----------------------------------------------------------------------------|
|-----------------------------------------------------------------------------|
|-----------------------------------------------------------------------------|
|-10-10-10-10--10-10-10-10--10-10---------------------------------------------|
|--8---8---8---8---8---8---8---8---8---8--------------------------------------|
   x    x    x     x    x    x     x    x    x     x


0:24 - 0:26  but then....
|-----------------------------------------------------------------------------|
|-----------------------------------------------------------------------------|
|-----------------------------------------------------------------------------|
|-----------------------------------------------------------------------------|
|--5--5--5--5--5--5--5--5--5--5-----7-7---------------------------------------|
|--3--3--3--3--3--3--3--3--3--3-----5-5---------------------------------------|
   x   x   x   x   x   x   x   x   x   x

0:27 - 0:29    i woke up from a
|-----------------------------------------------------------------------------|
|-----------------------------------------------------------------------------|
|-----------------------------------------------------------------------------|
|-10-10-10-10--10-10-10-10--10-10---------------------------------------------|
|--0---0---0---0---0---0---0---0---0---0--------------------------------------|
|-----------------------------------------------------------------------------|
   x    x    x     x    x     x    x    x    x    x


0:30 - 0:32         dream i cant repair
|-----------------------------------------------------------------------------|
|-----------------------------------------------------------------------------|
|-----------------------------------------------------------------------------|
|-10-10-10-10--10-10-10-10--10-10---------------------------------------------|
|--8---8---8---8---8---8---8---8---8---8--------------------------------------|
|-----------------------------------------------------------------------------|
   x    x    x    x     x     x    x    x    x    x


0:33 - 0:35      the relaized how
|-----------------------------------------------------------------------------|
|-----------------------------------------------------------------------------|
|-----------------------------------------------------------------------------|
|-----------------------------------------------------------------------------|
|-10-10-10-10--10-10-10-10--10-10---------------------------------------------|
|--8---8---8---8---8---8---8---8---8---8--------------------------------------|
   x    x    x     x    x    x     x    x    x     x


0:36 - 0:39          far i finally come
|-----------------------------------------------------------------------------|
|-----------------------------------------------------------------------------|
|-----------------------------------------------------------------------------|
|-----------------------------------------------------------------------------|
|--5--5--5--5--5--5--5--5--5--5-----------------------------------------------|
|--3--3--3--3--3--3--3--3--3--3-----------------------------------------------|
   x   x   x   x   x   x   x   x   x   x

0:40 - 0:42           the damaged ive cause
|-----------------------------------------------------------------------------|
|-----------------------------------------------------------------------------|
|-----------------------------------------------------------------------------|
|-----------------------------------------------------------------------------|
|--3--3--3--3--3--3--3--3--3--3-----------------------------------------------|
|--1--1--1--1--1--1--1--1--1--1-----------------------------------------------|
   x   x   x   x   x   x   x   x   x   x


0:43 - 0:45           the hurt i caused
|-----------------------------------------------------------------------------|
|-----------------------------------------------------------------------------|
|-----------------------------------------------------------------------------|
|-----------------------------------------------------------------------------|
|-10-10-10-10--10-10-10-10--10-10---------------------------------------------|
|--8---8---8---8---8---8---8---8---8---8--------------------------------------|
   x    x    x     x    x    x     x    x    x     x


0:46 - 0:48              can never be erased
|-----------------------------------------------------------------------------|
|-----------------------------------------------------------------------------|
|-----------------------------------------------------------------------------|
|-----------------------------------------------------------------------------|
|--5--5--5--5--5--5--5--5--5--5-----------------------------------------------|
|--3--3--3--3--3--3--3--3--3--3-----------------------------------------------|
   x   x   x   x   x   x   x   x   x   x

0:49 - 0:52        until now
|-----------------------------------------------------------------------------|
|-----------------------------------------------------------------------------|
|-----------------------------------------------------------------------------|
|-----------------------------------------------------------------------------|
|--3--3--3--3--3--3--3--3--3--3-----------------------------------------------|
|--1--1--1--1--1--1--1--1--1--1-----------------------------------------------|
   x   x   x   x   x   x   x   x   x   x


0:53 - 0:57             can we dissapear now
|-----------------------------------------------------------------------------|
|-----------------------------------------------------------------------------|
|-----------------------------------------------------------------------------|
|-----------------------------------------------------------------------------|
|--5--5--5--5--5--5--5--5--5--5~----------------------------------------------|
|--3--3--3--3--3--3--3--3--3--3~----------------------------------------------|
   x   x   x   x   x   x   x   x   x

0:58 - 1:05        I walked alone some nights
|-----------------------------------------------------------------------------|
|-----------------------------------------------------------------------------|
|-----------------------------------------------------------------------------|
|---------88--88--88-88--88--88-----------------------------------------------|
|--5)----66--66--66-66--66--66------------------------------------------------|
|--3)-------------------------------------------------------------------------|
            xx    xx   xx   xx   xx    xx

1:06 - 1:09     I wait for you sometimes
|-----------------------------------------------------------------------------|
|-----------------------------------------------------------------------------|
|-----------------------------------------------------------------------------|
|-----------------------------------------------------------------------------|
|--55--55--55-55--55--55------------------------------------------------------|
|--33--33--33-33--33--33------------------------------------------------------|
   xx    xx   xx  xx    xx    xx

1:10 - 1:14       flashing way to fast
|-----------------------------------------------------------------------------|
|-----------------------------------------------------------------------------|
|-----------------------------------------------------------------------------|
|--88--88--88-88--88--88------------------------------------------------------|
|--66--66--66-66--66--66------------------------------------------------------|
|-----------------------------------------------------------------------------|
   xx    xx   xx   xx   xx    xx

1:15 - 1:18    So when was my place branded
|-----------------------------------------------------------------------------|
|-----------------------------------------------------------------------------|
|-----------------------------------------------------------------------------|
|-----------------------------------------------------------------------------|
|--55--55--55-55--55--55------------------------------------------------------|
|--33--33--33-33--33--33------------------------------------------------------|


1:19 - 1:21   faithless lost again
|-----------------------------------------------------------------------------|
|-----------------------------------------------------------------------------|
|-----------------------------------------------------------------------------|
|--88--88--88-88--88--88------------------------------------------------------|
|--66--66--66-66--66--66------------------------------------------------------|
|-----------------------------------------------------------------------------|


1:22 - 1:25    So when was my place branded
|-----------------------------------------------------------------------------|
|-----------------------------------------------------------------------------|
|-----------------------------------------------------------------------------|
|-----------------------------------------------------------------------------|
|--55--55--55-55--55--55------------------------------------------------------|
|--33--33--33-33--33--33------------------------------------------------------|


1:26 - 1:30          faithless lost my friend
|-----------------------------------------------------------------------------|
|-----------------------------------------------------------------------------|
|-----------------------------------------------------------------------------|
|--88--88--88-88--88--88------------------------------------------------------|
|--66--66--66-66--66--66------------------------------------------------------|
|-----------------------------------------------------------------------------|

1:31 - 1:45 (Chorus)    I will never trust
|-----------------------------------------------------------------------------|
|-----------------------------------------------------------------------------|
|-----------------------------------------------------------------------------|
|-55--5--7---3-3-3-3-3-5-5-5-5-5-7-7-7--8-7-----------------------------------| 4X's
|-55--5--5---1-1-1-1-1-3-3-3-3-3-5-5-5--8-7-----------------------------------|
|-33--3--------------------------------------------6-5------------------------|

1:46 - 1:50       I still remember when your
|-----------------------------------------------------------------------------|
|-----------------------------------------------------------------------------|
|-----------------------------------------------------------------------------|
|-8-8-8-8-8-----10--10--10--10----10------------------------------------------|
|-6-6-6-6-6------8----8----8----8-----8---------------------------------------|
|-----------------------------------------------------------------------------|


1:51 - 2:08    You were found and we were bored
|-----------------------------------|
|-----------------------------------|
|-----------------------------------|
|-10-9--7-7-7-7-7--7-9--7-7-7-7-7---|        8X's
|--7--7--7-7-7-7-7--7-7--7-7-7-7-7--|
|-----------------------------------|
             x  x  x  x  x          x  x  x  x  x

2:09 - 2:11
|-----------------------------------------------------------------------------|
|-----------------------------------------------------------------------------|
|-----------------------------------------------------------------------------|
|-33-3-33-3-3-33-3-33-3-3-3---------------------------------------------------|
|-33-3-33-3-3-33-3-33-3-3-3---------------------------------------------------|
|-11-1-11-1-1-11-1-11-1-1-1---------------------------------------------------|

2:12 - 2:14                         2:15 -  2:18   I've made my way this life's
|-------------------------------|----------------------------------------------|
|-------------------------------|----------------------------------------------|
|-88-8-888-8-88-8-8----|-------------------------------------------------------|
|-88-8-888-8-88-8-8----|--------5----------------------------------------------|
|-66-6-666-6-66-6-6----|--------5----------------------------------------------|
|-------------------------------|--------3-------------------------------------|

2:19 - 2:22    to manufacture grace I feel the
|-----------------------------------------------------------------------------|
|-----------------------------------------------------------------------------|
|-----------------------------------------------------------------------------|
|--88--88--88-88--88--88------------------------------------------------------|
|--66--66--66-66--66--66------------------------------------------------------|
|-----------------------------------------------------------------------------|
   xx    xx   xx   xx   xx    xx


2:23 - 2:26     I can remember times
|-----------------------------------------------------------------------------|
|-----------------------------------------------------------------------------|
|-----------------------------------------------------------------------------|
|-----------------------------------------------------------------------------|
|--55--55--55-55--55--55------------------------------------------------------|
|--33--33--33-33--33--33------------------------------------------------------|
   xx    xx   xx  xx    xx    xx


2:27 - 2:30      something more than haste

|-----------------------------------------------------------------------------|
|-----------------------------------------------------------------------------|
|-----------------------------------------------------------------------------|
|--88--88--88-88--88--88------------------------------------------------------|
|--66--66--66-66--66--66------------------------------------------------------|
|-----------------------------------------------------------------------------|
   xx    xx   xx   xx   xx    xx


2:31 - 2:34      So when are we supposed
|-----------------------------------------------------------------------------|
|-----------------------------------------------------------------------------|
|-----------------------------------------------------------------------------|
|-----------------------------------------------------------------------------|
|--55--55--55-55--55--55------------------------------------------------------|
|--33--33--33-33--33--33------------------------------------------------------|


2:35 - 2:38       leave this place
|-----------------------------------------------------------------------------|
|-----------------------------------------------------------------------------|
|-----------------------------------------------------------------------------|
|--88--88--88-88--88--88------------------------------------------------------|
|--66--66--66-66--66--66------------------------------------------------------|
|-----------------------------------------------------------------------------|

2:39 - 2:42   So when were we supposed
|-----------------------------------------------------------------------------|
|-----------------------------------------------------------------------------|
|-----------------------------------------------------------------------------|
|-----------------------------------------------------------------------------|
|--55--55--55-55--55--55------------------------------------------------------|
|--33--33--33-33--33--33------------------------------------------------------|

2:43 - 2:45       climb on top of grace
|-----------------------------------------------------------------------------|
|-----------------------------------------------------------------------------|
|-----------------------------------------------------------------------------|
|--88--88--88-88--88--88------------------------------------------------------|
|--66--66--66-66--66--66------------------------------------------------------|
|-----------------------------------------------------------------------------|

pick slide (2:45 - 2:46)


2:47 - 2:53     From your cold hands
|-----------------------------------------------------------------------------|
|-----------------------------------------------------------------------------|
|-----------------------------------------------------------------------------|
|-8-8-8-8-8-----10--10--10--10----10------------------------------------------|  2X's
|-6-6-6-6-6------8----8----8----8-----8---------------------------------------|
|-----------------------------------------------------------------------------|


2:55 - 3:14  (chorus)     I will never trust
|-----------------------------------------------------------------------------|
|-----------------------------------------------------------------------------|
|-----------------------------------------------------------------------------|
|-55--5--7---3-3-3-3-3-5-5-5-5-5-7-7-7--8-7-----------------------------------| 5X's
|-55--5--5---1-1-1-1-1-3-3-3-3-3-5-5-5--8-7-----------------------------------|
|-33--3--------------------------------------------6-5------------------------|

3:15 - 3:22    I will never love again
|-----------------------------------------------------------------------------|
|-----------------------------------------------------------------------------|
|-----------------------------------------------------------------------------|
|-55--5--7---3-3-3-3-3-5-5-5-5-5-7-7-7--8-7-----------------------------------|
|-55--5--5---1-1-1-1-1-3-3-3-3-3-5-5-5--8-7~----------------------------------|
|-33--3--------------------------------------------6-5~-----------------------|


3:23 - 3:29       still remember that cold december
|--------------------------------------------------------------------------|
|--------------------------------------------------------------------------|
|--------------------------------------------------------------------------|
|-------------7)-----------------------------------------------------------|    end with this
|-------------7)-----------------------------------------------------------|
|-------------5)-----------------------------------------------------------|




LEGEND:
/    slide up
\    slide down
x   palm mute
~   hold note
)   stop note
Tap to rate this tab
# A B C D E F G H I J K L M N O P Q R S T U V W X Y Z