Song name
# A B C D E F G H I J K L M N O P Q R S T U V W X Y Z

Aiden - Knife Blood Nightmare tab

Help us improve GuitareTab! Take a short survey!
Song: Knife Blood Nightmare
Artist: Aiden
Album: Nightmare Anatomy
Tuning: Standard
Tabbed by: the mcr freak

I put the lyrics in so it's not as confusing.
This song was a pain in the ass to tab so please rate it!
xCheers

KEY:
~ let ring
p pull off
h hammer on
* palm mute
/ slide
v vibrato
Guitar 1 - rhythm
Guitar 2 - lead


Guitar 1 (not all that sure about this part...)
e----------------------------------------|
B-1~-xxx--------1~-xxx-------------------|
G-1~-xxx-6~-xxx-1~-xxx-------------------|
D-3~-xxx-6~-xxx-3~-xxx-8-88888-8-88888---|
A-3~-xxx-4~-xxx-3~-xxx-6-66666-6-66666---|x2
E-1~------------1~-----------------------|
| |                      *****   *****
Guitar 2
e----------------------------------------|
B----------------------------------------|
G----------------------------------5h6p5-|
D----------------------------------------|
A----------------------------------------|x2
E----------------------------------------|
^"She said live young and leave a wake of beauty,
  That's all I ever could have asked, should have asked from you
  And I won't forget to write to you when I get there soon
  Cuz you'lee be lying dead from..."

Guitar 1
e------------------------------|
B------------------------------|
G------------------------------|
D-66--------88-----------------|
A-44--------66-----------------|
E------------------------------|
| |
Guitar 2
e------------------------------|
B------------------------------|
G------------------------------|
D-///////////--///////////-----|
A-/pickslide/--/pickslide/-----|
E------------------------------|
^"Stab wounds to the neck and chest again"

Guitar 1
e-----------------------|
B-----------------------|
G-----------------------|
D-66--------------------|
A-66--------------------|
E-44--------------------|
| |
Guitar 2
e---||------------------|
B---||------------------|
G---||-/5-6-5-6-5-6p5---|
D-6-||----------------6-|
A---||------------------|
E---||------------------|
^"They found you covered up in blood
  Covered head to toe in blood"

Guitar 1
e------------------------------|
B------------------------------|
G------------------------------|
D-66--------88-----------------|
A-44--------66-----------------|
E------------------------------|
| |
Guitar 2
e------------------------------|
B------------------------------|
G------------------------------|
D-///////////--///////////-----|
A-/pickslide/--/pickslide/-----|
E------------------------------|
^"Face first in a tale of awkward love"

Guitar 1
e-----------------------|
B-----------------------|
G-----------------------|
D-66--------------------|
A-66--------------------|
E-44--------------------|
| |
Guitar 2
e---||------------------|
B---||------------------|
G---||-/5-6-5-6-5-6p5---|
D-6-||----------------6-|
A---||------------------|
E---||------------------|
^"They found you covered up in blood
  She's bleeding, she's bleeding"

Guitar 1
e--------------------------------------------------------|
B--------------------------------------------------------|
G--------------------------------------------------------|
D-66~---88~---3------------------------------------------|
A-44~---66~---3------------------------------------------|
E-------------1------------------------------------------|
| |
Guitar 2
e--------------------------------------------------------|
B--------------------------------------------------------|
G-------------------8-6-5-6-5--------8-6-5h6p5-----------|
D------------/6-8-6-----------6~-6h8-----------8---------|
A--------------------------------------------------------|
E--------------------------------------------------------|
^"Gone with the stitching in her heart left out
  A silhouette that just won't heal
  And dying in your arms tonight"

Guitar 1
e------------------|  |----------------------------------|
B------------------|  |----------------------------------|
G------------------|  |----------------------------------|
D------------------|  |-33-----33---33---33-33-----------|
A-66-----66---66---|x2|-33-----33---33---33-33-----------|
E-44-----44---44---|  |-11-----11---11---11-11-----------|
| **     **   **        **     **   **   ** **
| |
Guitar 2
e------------------|  |----------------------------------|
B------------------|  |----------------------------------|
G------------------|  |----------------------------------|
D---5-6----5-6-5h6-|  |---5-6----5-6---5h6-5-6---5-6-8-6-|
A------------------|x2|----------------------------------|
E------------------|  |----------------------------------|
^"This dream, we die
  With this blood, and this knife
  This dream, we die
  With this blood, and this knife"

Guitar 1
e----------------------------------|
B----------------------------------|
G------------------------333333333-|
D-6~-8~-3-33333333333333-333333333-|
A-6~-6~-3-33333333333333-111111111-|
E-4~----1-11111111111111-----------|
          **************
(No guitar 2)
^"I know it's all just a bad dream now"

Guitar 1
e-----------------------------------------------------------|
B-----------------------------------------------------------|
G-----------------------------------------------------------|
D-33333333-------------------6666---------------------------|
A-11111111-66666666-44444444-4444-6666----44444444-66666666-|
E----------44444444-22222222------4444----22222222-44444444-|
| |
Guitar 2 (Not accurate but it fits, so...)
e-----------------------------------------------------------|
B-----------------------------------------------------------|
G-33333333-------------------5555-6666----------------------|
D----------66666666-44444444--------------------------------|
A-11111111-------------------3333-4444----------------------|
E----------44444444-22222222--------------------------------|
^"So now midnight's here
  You're all alone
  They use this fear
  It's all just a bad dream
  And I can't seem to wake up from this"
Guitar 1
e-----------------------------------------------------------|
B-----------------------------------------------------------|
G-----------------------------------------------------------|
D-33333333--------------------------------------------------|
A-11111111-66666666-44444444-44444444-44444444-666666666666-|
E----------44444444-22222222-22222222-22222222-444444444444-|
| |                                            ** ** ** ** 
Guitar 2 (Still not right)
e-----------------------------------------------------------|
B-----------------------------------------------------------|
G-33333333-------------------5555-6666----------------------|
D----------66666666-44444444--------------------------------|
A-11111111-------------------3333-4444----------------------|
E----------44444444-22222222--------------------------------|
^"Midnight's here
  You're all alone
  They use this fear
  It's all just a bad dream
  And I can't seem to wake up from this"

Guitar 1
e------------------|  |----------------------------------|
B------------------|  |----------------------------------|
G------------------|  |----------------------------------|
D------------------|  |-33-----33---33---33-33-----------|
A-66-----66---66---|x2|-33-----33---33---33-33-----------|
E-44-----44---44---|  |-11-----11---11---11-11-----------|
| **     **   **        **     **   **   ** **
| |
Guitar 2
e------------------|  |----------------------------------|
B------------------|  |----------------------------------|
G------------------|  |----------------------------------|
D---5-6----5-6-5h6-|  |---5-6----5-6---5h6-5-6---5-6-8-6-|
A------------------|x2|----------------------------------|
E------------------|  |----------------------------------|
^"My dreams, we die
  With this blood, and this knife
  My dreams, we die
  With this blood, and this knife"

Guitar 1 (second time through)
e-----------|  |---------------|
B-----------|  |---------------|
G-----------|  |---------------|
D-3--5-6-8--|  |-3--5-8-6--5h6-|
A-----------|x3|---------------|
E-----------|  |---------------|
| |
Guitar 2
e------------|  |---------------|
B------------|  |---------------|
G----8--5-6--|  |----8-6-5--3h5-|
D-6----------|  |-6-------------|
A------------|x4|---------------|
E------------|  |---------------|
^"I know it's all just a bad dream now
  It's all just a bad dream now
  I say"

Guitar 1
e------------------------------|
B------------------------------|
G------------------------------|
D-66--------88-----------------|
A-44--------66-----------------|
E------------------------------|
| |
Guitar 2
e------------------------------|
B------------------------------|
G------------------------------|
D-///////////--///////////-----|
A-/pickslide/--/pickslide/-----|
E------------------------------|
^"This is the last time that I'll ever 
 Get to see your face alive"

Guitar 1
e-----------------------|
B-----------------------|
G-----------------------|
D-66--------------------|
A-66--------------------|
E-44--------------------|
| |
Guitar 2
e---||------------------|
B---||------------------|
G---||-/5-6-5-6-5-6p5---|
D-6-||----------------6-|
A---||------------------|
E---||------------------|
^"They found you covered up in blood
  Covered head to toe in blood"

Guitar 1
e------------------------------|
B------------------------------|
G------------------------------|
D-66--------88-----------------|
A-44--------66-----------------|
E------------------------------|
| |
Guitar 2
e---||------------------|------------------|------------------|
B---||------------------|------------------|------------------|
G---||-/5-6-5-6-5-6p5---|-/5-6-5-6-5-6p5---|-/5-6-5-6-5-6p5---|
D-6-||----------------6-|----------------6-|----------------6-|
A---||------------------|------------------|------------------|
E---||------------------|------------------|------------------|

Guitar 1 (not all that sure about this part...)
e----------------------------------------|
B-1~-xxx--------1~-xxx-------------------|
G-1~-xxx-6~-xxx-1~-xxx-------------------|
D-3~-xxx-6~-xxx-3~-xxx-8-88888-8-88888---|
A-3~-xxx-4~-xxx-3~-xxx-6-66666-6-66666---|x2
E-1~------------1~-----------------------|
| |                      *****   *****
Guitar 2
e----------------------------------------|
B----------------------------------------|
G----------------------------------5h6p5-|
D----------------------------------------|
A----------------------------------------|x2
E----------------------------------------|
^"She said live young and leave a wake of beauty,
  That's all I ever could have asked, should have asked from you
  And I won't forget to write to you when I get there soon
  Cuz you'lee be lying dead from dreaming (nightmares)"

Guitar 1
e-----------------------------------------------------------|
B-----------------------------------------------------------|
G-----------------------------------------------------------|
D-33333333-------------------6666---------------------------|
A-11111111-66666666-44444444-4444-6666----44444444-66666666-|
E----------44444444-22222222------4444----22222222-44444444-|
| |
Guitar 2 (O.o)
e-----------------------------------------------------------|
B-----------------------------------------------------------|
G-33333333-------------------5555-6666----------------------|
D----------66666666-44444444--------------------------------|
A-11111111-------------------3333-4444----------------------|
E----------44444444-22222222--------------------------------|
^"So now midnight's here
  You're all alone
  They use this fear
  It's all just a bad dream
  And I can't seem to wake up from this"
Guitar 1
e-----------------------------------------------------------|
B-----------------------------------------------------------|
G-----------------------------------------------------------|
D-33333333--------------------------------------------------|
A-11111111-66666666-44444444-44444444-44444444-666666666666-|
E----------44444444-22222222-22222222-22222222-444444444444-|
| |                                            ** ** ** ** 
Guitar 2 (...)
e-----------------------------------------------------------|
B-----------------------------------------------------------|
G-33333333-------------------5555-6666----------------------|
D----------66666666-44444444--------------------------------|
A-11111111-------------------3333-4444----------------------|
E----------44444444-22222222--------------------------------|
^"Midnight's here
  You're all alone
  They use this fear
  It's all just a bad dream
  And I can't seem to wake up from this"

Play above again.

End on
Guitar 1
e----|
B----|
G----|
D-3~-|
A-3~-|
E-1~-|
| |
Guitar 2
e-----|
B-----|
G-----|
D-----|
A-----|
E-1v~-|
Related for Knife Blood Nightmare tab